Oops, an error
Loading. Please wait.

Belle Tab

version 4
version 4

Whole song

Interactive

219,006 views 153 this week
24 commentsread comments
1 2 3 4 5
x 134
add to favorites
launch autoscroll
font size
0
reset
how to read this tab
guitar tuner
Autoscroll
slow
fast
+/-
esc
set tempo
stop
Help us to improve Ultimate-Guitar.com Take our survey!
×
Gmaj7           G6              Gm7             Gm6
e|---------------|---------------|---------------|---------------|
B|----3-----3----|--3---------3--|----3-----3----|--3---------3--|
G|----4-----4----|--4-------4----|----3-----3----|--3-------3----|
D|----4-----4----|--2-----2------|----3-----3----|--2-----2------|
A|---------------|---------------|---------------|---------------|
E|3-----3-3-----3|------3--------|3-----3-3-----3|------3--------|

Oi lienda,             Bella che fa?


  Gmaj7           G6              Bm7             Cm6   
e|---------------|---------------|---------------|---------------|
B|----3-----3----|--3---------3--|----7-----7----|--8-----8--8--8|
G|----4-----4----|--4-------4----|----7-----7----|--8-----8--8--8|
D|----4-----4----|--2-----2------|----7-----7----|--7-----7--7--7|
A|---------------|---------------|---------------|---------------|
E|3-----3-3-----3|------3--------|7-----7-7-----8|------8--------|

Bonita,              bonita que tal?



  Am7             Am6             Am7             G#7
e|---------------|---------------|---------------|---------------|
B|----5-----5----|--5---------5--|----5-----5----|--4---------4s3|
G|----5-----5----|--5-------5----|----5-----5----|--5-------5----|
D|----5-----5----|--4-----4------|----5-----5----|--4-----4------|
A|---------------|---------------|---------------|---------------|
E|5-----5-5-----5|------5--------|5-----5-5-----4|------4--------|

But belle,            Je ne comprends          pas      francais.



  Gmaj7           Cm6              Am7            G#7
e|---------------|---------------|---------------|---------------|
B|----3-----3----|--8---------8--|----5-----5----|--4---------4--|
G|----4-----4----|--8-------8----|----5-----5----|--5-------5----|
D|----4-----4----|--7-----7------|----5-----5----|--4-----4------|
A|---------------|---------------|---------------|---------------|
E|3-----3-3-----8|------8--------|5-----5-5-----4|------4--------|

             So you'll have to speak to me        some other way.



Repeat twice, add accordion to first repeat, add words to second repeat.


End on:

  
e|---------------|
B|----3-----3---3|
G|----4-----4---4|
D|----4-----4---4|
A|---------------|
E|3-----3-3------|





Accordion solo for guitar:


 +   +   +   +   +   +   +   +   +   +   +   +   +   +   +   +   +   +   
e|-------|---------------|---------------|---------------|---------------|
B|------5|7-------------5|--------------5|6-------------5|--------------5|
G|----7--|---------------|------------7--|---------------|------------7--|
D|--5----|---------------|---------------|---------------|----------5----|
A|-------|---------------|---------------|---------------|---------------|
E|-------|---------------|---------------|---------------|---------------|


 +   +   +   +   +   +   +   +   +   +   +   +   +   +   +   +    
e|---------------|---------------|7-------------8|---------------|
B|7-------------5|---------------|---------------|---------------|
G|---------------|------------7--|---------------|---------------|
D|---------------|---------------|---------------|---------------|
A|---------------|---------------|---------------|---------------|
E|---------------|---------------|---------------|---------------|


 +   +   +   +   +   +   +   +   +   +   +   +   +   +   +   +   
e|---------------|---------------|---------------|---------------|
B|8--------10p8-7|------------7-8|---------10p8-7|---------------|
G|---------------|----------9----|---------------|------------9p7|
D|---------------|---------------|---------------|---------------|
A|---------------|---------------|---------------|---------------|
E|---------------|---------------|---------------|---------------|


 +   +   +   +   +   +   +   +   +   +   +   +   +   +   +   +   + + + +
e|---------------|---------------|-------------10|------------8--|7------|
B|7------------8-|-----------10p8|8--------------|---------------|-------|
G|---------------|---------------|---------------|---------------|-------|
D|---------------|---------------|---------------|---------------|-------|
A|---------------|---------------|---------------|---------------|-------|
E|---------------|---------------|---------------|---------------|-------|

************************************

| p  Pull-off
| s  slide

************************************
Suggest correction
comments
print report bad tab
24 comments total. Showing first comments.
+1 reply
flipinogrl08 10 Feb 17, 2006 03:42 PM

watch someone who can really play it.
http://youtube.com/watch?v=QkajTRC8MbI&search=jack%20johnson

0 reply
.:LoCo:. 31 Feb 28, 2006 02:48 PM

dam! that girl is good!!

0 reply
.:LoCo:. 31 Feb 28, 2006 02:54 PM

by the way excellent tab! lol

guest
You may want to rate the tab now too:
select rating
Wanna post a correction for this tab? Suggest correction