Oops, an error
Loading. Please wait.

Bubble Toes Tab

version 1
version 1

Intro

Whole song

Interactive

33,066 views 6 this week
2 commentsread comments
1 2 3 4 5
1 last vote to show rating
add to favorites
launch autoscroll
font size
0
reset
how to read this tab
guitar tuner
×
Best way to learn
"Bubble Toes"
Autoscroll
slow
fast
+/-
esc
set tempo
stop
this is the intro 
e------------
b------------
g-7-----9----
d-7--7--9-10-
a-5--7--7-10-
e----5----8---
little diddy during the intro
e----------
b----------
g----------
d----2--3--2
a-3--x--x--x
e-1--3--3--3
then G-C-D barre chords
little break down
d-5--5-------------2--2-2-2-4-2-0-2-0
a-5--5--2--3--5----------------------
e-3--3-----------3-------------------
then pretty then backt the G-C-D barre chords for the rest of the song
there's also a lot of muting in between each strum-don't fuck it up
Suggest correction
Give kudos to tab author, rate the tab!
1 2 3 4 5
comments
print report bad tab
2 comments total.
0 reply
grantc6 10 Oct 30, 2002 07:00 PM

little diddy may also be:
e----------------------------------
b----------------------------------
g----------------------------------
d----------------------------------
a-5--5-7--7-8--8-7-----------------
e-3--3-3--3-3--3-3-----------------

0 reply
skiermurph 53 Apr 10, 2011 05:42 PM

Far better tabs for this song out there for sure....

guest
You may want to rate the tab now too:
select rating
Wanna post a correction for this tab? Suggest correction