Oops, an error
Loading. Please wait.

Bubble Toes Tab

version 3
version 3

Whole song

Interactive

Video

11,054 views 48 this week
1 commentread comment
1 2 3 4 5
x 7
add to favorites
launch autoscroll
font size
0
reset
how to read this tab
guitar tuner
Autoscroll
slow
fast
+/-
esc
set tempo
stop
Help us to improve Ultimate-Guitar.com Take our survey!
×
Author
Difficulty
novice
Very easy song to learn fun to play
listen to it to figure when to play each part


Play riff A twice than riff B and repeat until 0:48 in the song than play riff c
until the end with the solo at 1:23


Riff A
e-----------------------------------|
b-----------------------------------|
g-----------------------------------|
d-7--7--x---------9--9--x-5--5-x----|
a-5--5--x-7--7--x-7--7--x-3--3-x----|
E---------5--5--x-------------------|

Riff B
e---------------------------------------|
b---------------------------------------|
g---------------------------------------|
d-------x-----2-x----3-x----2-x---------|
a-----5-x-------x------x------x---------|
E--3----x--3----x-3----x-3----x---------|



Riff C

try and figure out strumming pattern here is the fingering to play each chord

    G          C           D
e-3------5------7-----------------------|
b-3------5------7-----------------------|
g-4------5------7-----------------------|
d-5------5------7-----------------------|
a-5------3------5-----------------------|
E-3-------------------------------------|


And the solo at 1:23

e----------------------------------|
b----------------------------------|
g----------------------------------|
d-------------------2-2-2-4-2-0----|
a-------2-3-5-------------------3--|
E--3-3---------3-------------------|
Suggest correction
comments
print report bad tab
1 comment total.
+1 reply
Martins4Fun92 10 May 29, 2015 12:27 PM

Sorry man but those bar chords should be played as 7's and hammer on high e with pinky fifth fret

G C D
e-3--h5---5------7-----------------------|
b-3---3---5------7-----------------------|
g-4---4---5------7-----------------------|
d-3---3---5------7-----------------------|
a-5---5---3------5-----------------------|
E-3---3----------------------------------|

guest
You may want to rate the tab now too:
select rating
Wanna post a correction for this tab? Suggest correction