Oops, an error
Loading. Please wait.

Bubble Toes tab

version 4
version 4

Whole song

Interactive

Video

223 views 6 this week
no commentswrite comment
1 2 3 4 5
3 more votes to show rating
add to favorites
×
Save as Personal and add changes to this tab that will be seen only by you. Learn more ›
×
You can save this tab as Personal to edit and correct it or add notes. All changes will be seen only by you. Learn more »
launch autoscroll
font size
0
reset
how to read this tab
guitar tuner
edit
Autoscroll
slow
fast
+/-
esc
set tempo
stop
Author
Song: Bubble Toes
Artist: Jack Johnson
Album: Brushfire Fairytales 

Tuning: Standard  No Capo  Acoustic Guitar
NOTE: Really emphasize the dead notes in this song.


[Intro] 

e|---------------------------------------------------------------------------|
B|---------------------------------------------------------------------------|
G|---------------------------------------------------------------------------|
D|---7--x--7---------9--x--9-----------7--x--7---------9--x--9---------------| 
A|---5--x--5-7--x--7-7--x--7-10--x--10-5--x--5-7--x--7-7--x--7-10--x--10-----|
E|-----------5--x--5---------8---x--8----------5--x--5---------8---x--8------|

e|---------------------------------------|
B|---------------------------------------|
G|---------------------------------------|
D|---------------------------------------| x3
A|---5--x--5-7--x--7-8--x--8-7--x--7-----|
E|---3--x--3-3--x--3-3--x--3-3--x--3-----|

e|---------------------------------------------------------------------------|
B|---------------------------------------------------------------------------|
G|---------------------------------------------------------------------------|
D|---7--x--7---------9--x--9-----------7--x--7---------9--x--9---------------| 
A|---5--x--5-7--x--7-7--x--7-10--x--10-5--x--5-7--x--7-7--x--7-10--x--10-----|
E|-----------5--x--5---------8---x--8----------5--x--5---------8---x--8------|


[Verse]

e|---3--3-3-x--3--3--3--3-3-x--3--3-3-x--3/5--5--5--5-5-x-------|
B|---3--3-3-x--3--3--3--3-3-x--5--5-5-x--5/7--7--7--7-7-x-------|
G|---4--4-4-x--4--4--4--4-4-x--5--5-5-x--5/7--7--7--7-7-x-------|
D|---5--5-5-x--5--5--5--5-5-x--5--5-5-x--5/7--7--7--7-7-x-------| x7
A|---5--5-5-x--5--5--5--5-5-x--3--3-3-x--3/5--5--5--5-5-x-------|
E|---3--3-3-x--3--3--3--3-3-x--3--3-3-x--3/5--5--5--5-5-x-------|


[Solo]

e|------------------------------------------------|
B|------------------------------------------------|
G|------------------------------------------------|
D|----------------x-x-x-x--2--2-2-2-4-2-0---------|
A|-------2-3-5----------------------------3-------|
E|---3-3-------3----------------------------------|


[Verse]

(Play this until the end with one break at 2:07 - 2:10)

e|---3--3-3-x--3--3--3--3-3-x--3--3-3-x--3/5--5--5--5-5-x-------|
B|---3--3-3-x--3--3--3--3-3-x--5--5-5-x--5/7--7--7--7-7-x-------|
G|---4--4-4-x--4--4--4--4-4-x--5--5-5-x--5/7--7--7--7-7-x-------|
D|---5--5-5-x--5--5--5--5-5-x--5--5-5-x--5/7--7--7--7-7-x-------| 
A|---5--5-5-x--5--5--5--5-5-x--3--3-3-x--3/5--5--5--5-5-x-------|
E|---3--3-3-x--3--3--3--3-3-x--3--3-3-x--3/5--5--5--5-5-x-------|


Lyrics:
It's as simple as something that nobody knows that her eyes are as big 
as her bubbly toes 
on the feet of a queen of the hearts of the cards and her feet are all 
covered with tar balls and scars 
It's as common as something that nobody knows that her beauty will 
follow wherever she goes 
up the hill in the back of her house in the would she love me forever, 
I know she could 

I remember when you and me mmm how we used to be just good friends 
Wouldn't give me none 
But all I wanted was some 
She's got a whole lot of reasons 
She cant think of a single one 
That can justify leaving 
and he got none but he thinks he got so many problems 
Man he got, too much time to waste 

His dreams are like commercials 
But her dreams are picture perfect and 
Our dreams are so related though they're often underestimated 

It's as simple as something that nobody knows that 
Her eyes are as big as her bubbly toes 
On the feet of the queen of the hearts of the cards 
And her feet are infested with tar balls and 

La da da da da da 

Well I was eating lunch at the D. L. G. 
When this little girl came and she sat next to me 
I never seen nobody move the way she did 
Well she did and she does and she'll do it again 

When you move like a jellyfish 
Rhythm don't mean nothing 
You go with the flow 
You don't stop 
Move like a jellyfish 
Rhythm is nothing 
You go with the flow 
You don't stop 

It's as common as something that nobody knows it 
Her beauty will follow wherever she goes 
Up the hill in the back of her house in the wood 
She'll love me forever, I know she 

If you would only listen 
You might just realize what you're missing 
You're missing me 
If you would only listen 
You might just realize what you're missing 
You're missing me 

It's as simple as something that nobody knows that 
Her eyes are as big as her bubbly toes 
On the feet of the queen of the hearts of the cards 
And her feet are infested with tar balls and



************************************

| x   Dead note
| /   Slide up

************************************

            
            
Suggest correction
Creating personal tab
Creating personal tab
You can edit any tab online and save it as your Personal.

You can edit, replace or remove any tab part or add personal notes – all changes will be seen only by you.

Personal tabs can be accessed anytime from any device, even offline.
Learn more »
Give kudos to tab author, rate the tab!
1 2 3 4 5
comments
print report bad tab
guest
You may want to rate the tab now too:
select rating
Wanna post a correction for this tab? Suggest correction