Oops, an error
Loading. Please wait.

Constellations ukulele

version 2
version 2

Whole song

Interactive

466 views 30 this week
no commentswrite comment
1 2 3 4 5
x 6
add to favorites
×
Save as Personal and add changes to this tab that will be seen only by you. Learn more ›
×
You can save this tab as Personal to edit and correct it or add notes. All changes will be seen only by you. Learn more »
launch autoscroll
font size
0
reset
transpose
0
reset
display chords
guitar tuner
edit
Autoscroll
slow
fast
+/-
esc
set tempo
stop
Strumming
There is no strumming pattern for this song yet. and get +5 IQ
[Intro] 

A|---------------|-8---0-----8-----|
E|-3p2h3/5/3p2---|-------5p3-------|
C|-------------2-|---------------2-|
G|---------------|---5---------0---|
                                              x 2
A|-3-------5-----|-5-----------5---|
E|---------------|-------2p0-------|
C|-----4-------4-|-----6---------2-|
G|---0-------0---|---2---------0---|


[Verse 1]

G
The light was leaving
In the west it was blue
C
The children's laughter sang
G
And skipping just like the stones they threw
C
Their voices echoed across the way
D
Its getting late


[Chorus]

G      F            C
It was just another night
         D
With the sun set
        G         F          C
And the moon rise not so far behind
           D
To give us just enough light
   G        F              C
To lay down underneath the stars
          D
Listen to papas translations
G      F                  C
Of the stories across the sky
            D
We drew our own constellations


[Solo]

A|------------5-------------5-|-----3------/5-------5------/5---|
E|-3----5-------7-----5-------|---------------------------------|
C|----------------------------|-4p2-------2---2-7p2-------2---2-|
G|--4/5---5/4-----7/5---5/4---|-------0h2-------------2/4-------|

A|-------------5----------------7-|-----5---5---------5-----5---|
E|-3-----5-------7p5p3p0h3h5-3----|-3p0-------3p0-0-------2-----|
C|--------------------------------|---------------------6-------|
G|---4/5---5/4--------------------|------/4---------0---------0-|


[Verse 2]

G
The west winds often last too long
C
The wind may calm down
Nothing ever feels the same
G
Sheltered under the Kamani tree
C
Waiting for the passing rain
G
Clouds keep moving to uncover the scene
C
Stars above are chasing the day away
G
To find the stories that we sometimes need
C
Listen close enough
D
All else fades  
Fades away


[Chorus]

G      F            C
It was just another night
         D
With the sun set
        G         F          C
And the moon rise not so far behind
           D
To give us just enough light
   G        F              C
To lay down underneath the stars
          D
Listen to all the translations
G      F                  C
Of the stories across the sky           
            D  
We drew our own constellations


***************************
| / slide
| p pull-off
| h hammer-on
***************************

            
            
Suggest correction
Creating personal tab
Creating personal tab
You can edit any tab online and save it as your Personal.

You can edit, replace or remove any tab part or add personal notes – all changes will be seen only by you.

Personal tabs can be accessed anytime from any device, even offline.
Learn more »
There is a new version of this tab from 4 days ago which you may like more. Go check it out:
comments
print report bad tab
guest
You may want to rate the tab now too:
select rating
Wanna post a correction for this tab? Suggest correction