Oops, an error
Loading. Please wait.

Constellations Tab

version 4
version 4

Intro

Whole song

Interactive

10,985 views 66 this week
1 commentread comment
1 2 3 4 5
excellent!
x 6
add to favorites
launch autoscroll
font size
0
reset
how to read this tab
guitar tuner
Tab Pro tools
  • play this tab
  • loop segment
  • change instrument
  • show fretboard
  • metronome
×
Best way to learn
"Constellations"
Autoscroll
slow
fast
+/-
esc
set tempo
stop
Contributor
Difficulty
intermediate
Tabbed By: Matt Edwards (Medwards24242@yahoo.com)
*With Lyrics

Title: Constellations
Aritst: Jack Johnson
Album: In Between Dreams

Tuning: C-G-D-G-B-D
Capo: 1st Fret


This is the RIGHT way, how it's REALLY played.
Jack plays this song in C-G-D-G-B-D tuning, with a capo on the first fret.
The tab is relative to the capo.

Key:
h - Hammer-On
p - Pull-Off
/ - Slide


Intro:
Finger pick the intro...
D---5p4h5/7/5p4p0-----|--------7p5-----0---|
B---------------------|--6---------6-------|
G---------------------|----5---------0-----|
D---------------------|------7-------------|
G---0-----------------|--------------------|
C---------------------|--5-----------------|

D---------------------|--------4p2-----0---|
B---1-----3-----------|--3---------3-------|
G-----0------0--------|----2---------0-----|
D-------2------2------|------4-------------|  This 2 times.
G---------------------|--------------------|
C---0-----------------|--2-----------------|

Verse:

 "The light was leaving,
	in the west it was blue."
D---5-5-5-7-7-5-5-4-5-0-0-0-0-0-0-0--|
B---0-0-0-0-0-0-0-0-0-0-0-0-0-0-0-0--|
G---0-0-0-0-0-0-0-0-0-0-0-0-0-0-0-0--|
D---0-0-0-0-0-0-0-0-0-0-0-0-0-0-0-0--|
G---0-0-0-0-0-0-0-0-0-0-0-0-0-0-0-0--|
C------------------------------------|

 "The children's laughter sang."
D---0-0-0-0-0-0-0-0-0-0-0-0-0-0-0-0--|
B---1-1-1-1-1-1-1-1-1-1-1-1-1-1-1-0--|
G---0-0-0-0-0-0-0-0-0-0-0-0-2-2-2-0--|
D---2-2-2-2-4-4-4-4-2-2-2-2-2-2-2-0--|
G---0-0-0-0-0-0-0-0-0-0-0-0-0-0-0-0--|
C---0-0-0-0-0-0-0-0-0-0-0-0-0-0-0-0--|

 "And skipping just like
	the stones they threw."
D---5-5-5-7-7-5-5-4-5-0-0-0-0-0-0-0--|
B---0-0-0-0-0-0-0-0-0-0-0-0-0-0-0-0--|
G---0-0-0-0-0-0-0-0-0-0-0-0-0-0-0-0--|
D---0-0-0-0-0-0-0-0-0-0-0-0-0-0-0-0--|
G---0-0-0-0-0-0-0-0-0-0-0-0-0-0-0-0--|
C------------------------------------|

 "Their voices
	echoed across the way."
D---0-0-0-0-0-0-0-0-0-0-0-0-0-0-0-0--|
B---1-1-1-1-1-1-1-1-1-1-1-1-1-1-1-1--|
G---0-0-0-0-0-0-0-0-0-0-0-0-2-2-2-0--|
D---2-2-2-2-4-4-4-4-2-2-2-2-2-2-2-2--|
G---0-0-0-0-0-0-0-0-0-0-0-0-0-0-0-0--|
C---0-0-0-0-0-0-0-0-0-0-0-0-0-0-0-0--|

			"It's getting 
D---2-2-2-2-2-2-2-2-2-2-2-2-2-2-2-0--|
B---1-1-1-1-1-1-1-1-1-1-1-1-1-1-1-0--|
G---0-0-0-0-0-0-0-0-0-0-0-0-0-0-0-0--|
D---2-2-2-2-2-2-2-2-2-2-2-2-2-2-2-0--|
G---0-0-0-0-0-0-0-0-0-0-0-0-0-0-0-0--|
C---0-0-0-0-0-0-0-0-0-0-0-0-0-0-0----|

 late."
D---2-2-2-2-2-2-2-2-2-2-2-2-2-2-2-0--|
B---3-3-3-3-3-3-3-3-3-3-3-3-3-3-3-0--|
G---2-2-2-2-2-2-2-2-2-2-2-2-2-2-2-0--|
D---4-4-4-4-4-4-4-4-4-4-4-4-4-4-4-0--|
G---2-2-2-2-2-2-2-2-2-2-2-2-2-2-2-0--|
C---2-2-2-2-2-2-2-2-2-2-2-2-2-2-2----|


Chorus:
"It was just another night.
With a sunset and a
moonrise not so far behind.
To give us just enough light
to lay down underneath the stars.
Listen to papas translations
of the stories across the sky.
We drew our own constellations"

D---5-5-5-5-0-0-0-0-5-5-5-5-5-5-5-0--|
B---0-0-0-0-0-0-0-0-6-6-6-6-6-6-6-0--|
G---0-0-0-0-0-0-0-0-5-5-5-5-5-5-5-0--|
D---0-0-0-0-0-0-0-0-7-7-7-7-7-7-7-0--|
G---0-0-0-0-0-0-0-0-5-5-5-5-5-5-5-0--|
C-------------------5-5-5-5-5-5-5----|

D---0-0-0-0-0-0-0-0-2-2-2-2-2-2-2-0--|
B---1-1-1-1-1-1-1-0-3-3-3-3-3-3-3-0--|
G---0-0-0-0-0-0-0-0-2-2-2-2-2-2-2-0--|
D---2-2-2-2-2-2-2-0-4-4-4-4-4-4-4-0--|  This 4 times.
G---0-0-0-0-0-0-0-0-2-2-2-2-2-2-2-0--|
C---0-0-0-0-0-0-0-0-2-2-2-2-2-2-2----|


Solo:
Finger pick the solo...
D---5-----7---------9-----7---------|--2p0-------0----0---5p0-------0----0--|
B---------------3---------------3---|------1-------/3---------3-------/3----|
G-----4/5---5/4-------7/5---5/4-----|--------0h2----------------2/4---------|
D-----------------------------------|---------------------------------------|
G-----------------------------------|---------------------------------------|
C-----------------------------------|---------------------------------------|

D---5-----7---------9p7p5--5h7-5----|--5p2--------5p2---2-------4-----------|
B---------------3--------5-------5--|------3----3-----------3-----3---------|
G-----4/5---5/4---------------------|--------/4-----------0---------0-------|
D-----------------------------------|-------------------------4-------------|
G-----------------------------------|---------------------------------------|
C-----------------------------------|---------------------------------------|


Verse:
(Same tab as the verse before)
"The west winds often last too long.
The wind may calm down nothing ever feels the same.
Sheltered under the Kamani tree.
Waiting for the passing rain.
Clouds keep moving to uncover the scene.
Stars above us chasing the day away.
To find the stories that we sometimes need.
Listen close enough, all else fades.
Fades away."

Chorus:
(Same tab as the chorus before)
"It was just another night.
With a sunset and a
moonrise not so far behind.
To give us just enough light
to lay down underneath the stars.
Listen to all the translations
of the stories across the sky.
We drew our own constellations"

Outro:
Same exact tab as the Intro.
Except it ends on...

D---5---|
B-------|
G-------|
D-------|
G---0---|
C-------|

I absolutely love this song, so fun to play around a camp fire haha.
Any questions, mistakes, or even type-o's that I've made then email me at 
Medwards24242@yahoo.com.
And this was my very first guitar tab so cut me some slack(;
comments
print report bad tab
1 comment total.
0 reply
MartinFurlepa wrote on May 13 2012, 01:05 pm

Intro:
Finger pick the intro...
D---5p4h5/7/5p4p0-----|--------7p5-----0---|
B---------------------|--6---------6-------|
G---------------------|----5---------0-----|
D---------------------|------7-------------|
G---0-----------------|--------------------|
C---------------------|--5-----------------|

D---------------------|--------4p2-----0---|
B---1-----3--1--------|--3---------3-------|
G-----0---------------|----2---------0-----|
D-------2-------------|------4-------------| This 2 times.
G---------------------|--------------------|
C---0-----------------|--2-----------------|

I think thats the only thing that needs changing

I want to post or [tab]
guest
You may want to rate the tab now too:
select rating
Please do not post tabs as comments. Select "correction" instead!