Oops, an error
Loading. Please wait.

Dreams Be Dreams tab

version 2
version 2

Whole song

Interactive

59,340 views 27 this week
8 commentsread comments
1 2 3 4 5
x 37
add to favorites
×
Save as Personal and add changes to this tab that will be seen only by you. Learn more ›
×
You can save this tab as Personal to edit and correct it or add notes. All changes will be seen only by you. Learn more »
launch autoscroll
font size
0
reset
how to read this tab
guitar tuner
edit
Autoscroll
slow
fast
+/-
esc
set tempo
stop
Author
[Intro]             [Fill]
e|--7/10--\7--5/7\5-|--7----7-----------|
B|--7/10--\7--5/7\5-|--7h10-7-9-7---7---|
G|------------------|-----------7h9-7---|
D|------------------|-----------------9-|
A|------------------|-------------------|
E|------------------|-------------------|
                    (play fill 3 times
                     and play next
                     part into verse)

[Transition to Verse]
e|------------------------------------------------|
B|------------------------------------------------|
G|--7---7-----------------------------------------|
D|--7h9-7h9-7-------------------------------------|
A|------------9-7------0--------------------------|
E|----------------10-7----------------------------|

[Verse]
       D     Bm chord  G chord   A chord
e|---------|---------|---------|-----------|------|
B|---------|---------|---------|-----------|------|
G|---------|---------|---------|-----------|------|
D|------4--|------0--|---------|-----------|------|
A|--0-5----|--0-2----|------2--|--------4--|------|
E|---------|---------|--0-3----|--3-3/5----|------|

She's just waiting for the summertime
when the weathers fine
and she could hitch a ride out of town
and so far away
from that low down, good for nothing
mistake making fool with excuses like

(strum for this part)
"baby that was a long time ago"
but thats just a euphemism
if you want the truth he was out of control
but a short time's a long time
when your mind just won't let it go

[Fill]
e|--7----7-----------|
B|--7h10-7-9-7---7---|
G|-----------7h9-7---|
D|-----------------9-|
A|-------------------|
E|-------------------|

[Solo
]
e|------------------------------------------------|
B|--------------7---7-----------------------------|
G|----------7---7h9-7---7---7---------------------|
D|--/7--7h9---9-------9-7h9-7---------------------|
A|----------------------------9-7-----------------|
E|------------------------------------------------|

e|--------------7----7----------------------------|
B|--------------7h10-7-7-7-0----------------------|
G|----------7----------9-7-0----------------------|
D|---/7-7h9---9-----------------------------------|
A|------------------------------------------------|
E|------------------------------------------------|

Well summer came along and then it was gone
and so was she but not from him
cuz he followed her just to let her know
her dreams are dreams
and all this living is so much harder than it seems
but girl don't let your dreams be dreams
you know this living is not so hard as it seems
don't let your dreams be dreams



************************************

| /  Slide up
| \  Slide down
| h  Hammer-on

************************************

            
            
Suggest correction
Creating personal tab
Creating personal tab
You can edit any tab online and save it as your Personal.

You can edit, replace or remove any tab part or add personal notes – all changes will be seen only by you.

Personal tabs can be accessed anytime from any device, even offline.
Learn more »
comments
print report bad tab
8 comments total. Showing first comments.
+1 reply
znap 10 Dec 09, 2006 01:15 PM

hey nice tab but wat do i strum???

0 reply
BlindS!ght 41 Feb 26, 2007 12:44 PM

^ probably wont see this but I think he means to strum the D Bm G and A chords

+1 reply
REP 86 Nov 08, 2008 03:28 PM

nice :D

guest
You may want to rate the tab now too:
select rating
Wanna post a correction for this tab? Suggest correction