Oops, an error
Loading. Please wait.

Flake Bass Tab

version 1
version 1

Whole song

Interactive

22,918 views 9 this week
1 commentread comment
1 2 3 4 5
excellent!
x 9
add to favorites
launch autoscroll
font size
0
reset
guitar tuner
Tab Pro tools
  • play this tab
  • loop segment
  • change instrument
  • show fretboard
  • metronome
×
Best way to learn
"Flake"
Autoscroll
slow
fast
+/-
esc
set tempo
stop
Jack Johnson
Flake (BASS TABS)
___________________

Tabbed out by Heather Kemmler



Standard Tuning

Come in after guitar riff plays twice (after 8 measures, with percussion)

Verse

G----------------------------------
D--10-11-12---12-12---15\----------
A------------------------8---8-8---
E----------------------------------

G----------------------------------
D--10\8---8-8---10\----------------
A------------------8---8-8---------
E----------------------------------

Chorus

G----------------------------------
D-------------7-10---10-10-10--11--
A--8---8-8-8-----------------------
E----------------------------------

G----------------------------------
D--12--12-12-12---12-7--7-7-7---7--
A----------------------------------
E----------------------------------

G----------------------------------
D--8--8-8-8---9-10--10-10-10--10---
A----------------------------------
E----------------------------------

G----------------------------------
D----------------------------------
A--8--8-8-8---8-10--10-10-10-------
E----------------------------------



That's about it! Note: Some variations are played by Merlo, i.e. at the end of
the verse he goes form the Bb to the C# and stays there instead of going back 
to the F, then he gets into the chorus.

Any corrections or comments just Email me at dizzyg5966@hotmail.com
comments
print report bad tab
1 comment total.
+1 reply
jackyi wrote on February 7 2014, 10:38 pm

Standard Tuning

Come in after guitar riff plays twice (after 8 measures, with percussion)

Verse

G----------------------------------
D--10-11-12---12-12---15\----------
A------------------------8---8-8---
E----------------------------------

G----------------------------------
D--10\8---8-8---10\----------------
A------------------8---8-8---------
E----------------------------------

Chorus

G----------------------------------
D-------------7-10---10-10-10--11--
A--8---8-8-8-----------------------
E----------------------------------

G----------------------------------
D--12--12-12-12---12-7--7-7-7---7--
A----------------------------------
E----------------------------------

G----------------------------------
D--8--8-8-8---9-10--10-10-10--10---
A----------------------------------
E----------------------------------

G----------------------------------
D-------------8-10--10-10-10-------
A--8--8-8-8------------------------
E----------------------------------

I want to post or [tab]
guest
You may want to rate the tab now too:
select rating
Please do not post tabs as comments. Select "correction" instead!