Oops, an error
Loading. Please wait.

Flake Tab

version 1
version 1

Solo

Whole song

Interactive

38,826 views 15 this week
1 commentread comment
1 2 3 4 5
please rate
add to favorites
launch autoscroll
font size
0
reset
how to read this tab
guitar tuner
Autoscroll
slow
fast
+/-
esc
set tempo
stop
Help us to improve Ultimate-Guitar.com Take our survey!
×
Author
-------------------------------------------------------------------------------
                             FLAKE - Jack Johnson
-------------------------------------------------------------------------------

This is the little solo part before the bridge at the end.  It's normally played in a
different tuning, but this is in standard tuning with a capo on the fret 1.  The numbers are in
relation to the capo.
Near the end of the song the chorus comes in again, and start playing the solo right
before "And often times we're lazy..."

It seems to me that maybe
It pretty much always means no
So don't tell me you might just let it go

                           And often times we're lazy
e|-------0-0----------------2/4\2-----------------------------------------------|
B|--0h2-------------------0---------------5-2h5-2-------------------------------|
G|------------------------------------------------------------------------------|
D|------------------------------------------------------------------------------|
A|------------------------------------------------------------------------------|
E|------------------------------------------------------------------------------|

It seems to stand in my way                        Cause no one, no, not no one likes to be let down

e|------------------------------2-0-------------------2/4\2-------------1/2\0--
|
B|-----------------0h2--5-0h2h5--------------------0-----------------0----------|
G|------------------------------------------------------------------------------|
D|------------------------------------------------------------------------------|
A|------------------------------------------------------------------------------|
E|------------------------------------------------------------------------------|

                       It seems to me that maybe
e|-------0-0----------------2/4\2-----------------------------------------------|
B|--0h2-------------------0---------------5-2h5-2-------------------------------|
G|------------------------------------------------------------------------------|
D|------------------------------------------------------------------------------|
A|------------------------------------------------------------------------------|
E|------------------------------------------------------------------------------|

It pretty much always means no                    So don't tell me, you might just let it go

e|-------------------------------2-0------------------2/4\2-------------1/2\0---|
B|------------------0h2--5-0h2h5-------------------0-----------------0----------|
G|------------------------------------------------------------------------------|
D|------------------------------------------------------------------------------|
A|------------------------------------------------------------------------------|
E|------------------------------------------------------------------------------|

and then the bridge...
Suggest correction
What's this?
You can suggest a correction to this tab. Community and Mods will review your correction and vote to approve or reject it.
comments
We did not receive enough feedback on this tab! Please rate:
print report bad tab
1 2 3 4 5
1 comment total.
0 reply
plus_seven7 53 wrote on March 14 2007, 07:16 pm

Sorry, a couple words got cut off, but you get the idea.

guest
You may want to rate the tab now too:
select rating
Please do not post tabs as comments. Select "correction" instead!