Oops, an error
Loading. Please wait.

Fortunate Fool Bass Tab

version 1
version 1

Whole song

4,610 views 1 this week
3 commentsread comments
1 2 3 4 5
2 more votes to show rating
add to favorites
launch autoscroll
font size
0
reset
guitar tuner
Autoscroll
slow
fast
+/-
esc
set tempo
stop
Help us to improve Ultimate-Guitar.com Take our survey!
×
Song: Fortunate Fool
Artist: Jack Johnson
Album: Brushfire Fairytales
Tabbed By: ADRA (d_abernathy20@hotmail.com)


Standard Tunning
*= let ring
^= lift


Intro/Chorus
G|-------------------|
D|-------------------|
A|-2*-2--------------|
E|------4*-4-3*-3-2*-|


Verse
G|------------------|
D|------------------|
A|-2*-4^-5^-6^------|
E|-------------4*-4-|


Fill
G|-------------------|
D|-------------------|
A|-4*-4------4*-4----|
E|------2*-2------2^-|


Pre-Chorus:
G|-------------------|
D|-------------------|
A|-4*-4-4-4-6*-6-6-6-|
E|-------------------|



Pro-Chorus:
G|--------------|
D|--------------|
A|-2*-2---------|
E|------4*-4-3*-|


Outro
G|----|
D|----|
A|-2*-|
E|----|


Order:
Intro       x1
Verse       x9
Fill        x1
Verse       x7
Fill        x1
Verse       x2
Pre-Chorus  x1
Chorus      x3
Pro-Chorus  x1
Verse       x9
Fill        x1
Verse       x2
Pre-Chorus  x1
Chorus      x3
Pro-Chorus  x1
Outro       x1

That's about it, it's not very hard at all, especially since it's a slow song.
Email me with any questions or comments. There ya go, enjoy.
Suggest correction
Give kudos to tab author, rate the tab!
1 2 3 4 5
comments
print report bad tab
3 comments total.
0 reply
Immortal_Guitar 20 Apr 29, 2006 08:45 PM

Good tab, but the verse is wrong

0 reply
Immortal_Guitar 20 Apr 29, 2006 08:47 PM

B----------------------
A--------2~~-2--4---6--
E---------------------4

verse sounds like this, I think

0 reply
Immortal_Guitar 20 Apr 29, 2006 08:50 PM

It's not B, it's D...I haven't slept at all

guest
You may want to rate the tab now too:
select rating
Wanna post a correction for this tab? Suggest correction