Oops, an error
Loading. Please wait.

Fortunate Fool Bass Tab

version 2
version 2

Whole song

1,611 views 9 this week
2 commentsread comments
1 2 3 4 5
excellent!
x 4
add to favorites
launch autoscroll
font size
0
reset
guitar tuner
Autoscroll
slow
fast
+/-
esc
set tempo
stop
Help us to improve Ultimate-Guitar.com Take our survey!
×
Author
Difficulty
novice
intro:
G|---------------------------------|
D|-9-------------------------------|
A|---11--10--9---------------------|
E|---------------------------------|
Verse:

G|---------------------------------|
D|--9--9--11-13--------------------|
A|--------------11-----------------|
E|---------------------------------|
Verse 2:

G|---------------------------------|
D|-----11-11-----11-11-------------|
A|--11-------9-9-------9-----------|
E|---------------------------------|
Chorus:

G|----------------------------------------|
D|--------------9-----------9-------------|
A|-7-77-7-9-99----11--9--7------11--9--7--|
E|----------------------------------------|
Suggest correction
comments
print report bad tab
2 comments total.
0 reply
luluking 10 wrote on November 20 2008, 04:32 pm

good tab exept the chorus seems to have some notes missing
pre-chorus
|-------------
|-------------
|7-77-7-9-99-9

chorus
|9-9----------------|
|---11--11-9--9-7--7|x3

end chorus
|9-9--------|
|---11--11-9|

2nd pre chorus
|--------
|--------
|7-77-7-9

tell me what you think

0 reply
Whysomx 10 wrote on March 8 2014, 03:15 pm

Great tab ! `However I think the end of the chorus should be :
G|----------------------------------------|
D|--------------9-----------9-------------|
A|-7-77-7-9-99----11--9--7------11--9--8--|
E|----------------------------------------|

guest
You may want to rate the tab now too:
select rating
Wanna post a correction for this tab? Suggest correction