Oops, an error
Loading. Please wait.

Fragments chords

version 2
version 2

Whole song

961 views 9 this week
no commentswrite comment
1 2 3 4 5
x 4
add to favorites
×
Save as Personal and add changes to this tab that will be seen only by you. Learn more ›
×
You can save this tab as Personal to edit and correct it or add notes. All changes will be seen only by you. Learn more »
launch autoscroll
font size
0
reset
transpose
0
reset
display chords
guitar tuner
edit
Autoscroll
slow
fast
+/-
esc
set tempo
stop
Strumming
There is no strumming pattern for this song yet. and get +5 IQ
The intro progression is also what is played for the verses, with a few extra G to A transitions at the end 
of the 2nd,3rd, and 4th verses.
This is in drop D tuning, so here are the chords.

    D    G    A
e|--2----3----5-------------------|
B|--3----3----5-------------------|
G|--2----4----6-------------------|
D|--0----5----7-------------------|
A|--0----5----7-------------------|
D|--0----x----x-------------------| 

[Intro] 
                     D                                          G
e|-----------------------2-------2-------2--------------------------3-------3-------3-------------|
B|---3--2--0h2p0---------3-------3-------3------3--2--0h2p0---------3-------3-------3-------------|
G|----------------2------2-------2-------2-------------------2------4-------4-------4-------------|
D|---------------------0-0-0---0-0-0---0-0-0----------------------5-5-5---5-5-5---5-5-5-----------|
A|--------------------------------------------------------------5-------5-------5-----------------|
D|-------------------0-------0-------0------------------------------------------------------------|

                     D                                          
e|-----------------------2-------2-------2----------------------------------|
B|---3--2--0h2p0---------3-------3-------3------3--2--0h2p0-----------------|
G|----------------2------2-------2-------2-------------------2--------------|
D|---------------------0-0-0---0-0-0---0-0-0--------------------------------|
A|--------------------------------------------------------------------------|
D|-------------------0-------0-------0--------------------------------------|

       G                   A                  G                    A
e|---------3-------3-----/-----5-------5----------3-------3----/---5--------|
B|---------3-------3-----/-----5-------5----------3-------3----/---5--------|
G|---------4-------4-----/-----6-------6----------4-------4----/---6--------|
D|-------5-5-5---5-5-5---/---7-7-7---7-7-7------5-5-5---5-5-5--/---7--------|
A|-----5-------5---------/-7-------7----------5-------5--------/---7--------|
D|--------------------------------------------------------------------------|

[Verse 1]
                 D                   G
Fragments on the sea, birds of prey above
                D                        G
All that lies beneath, no longer what is was
   A        G              A
It changed, why can't we relate

[Verse 2]
                 D                               G
Shadows from the deep, the thoughts we're afraid of
                D                        G
Secrets that we keep, the surface of our love
    A     G              A
And hate, why can't we relate
G                   A            G                A
With oursevles with what we open up when it's too late

[Solo]
D               G               A               G
1 - 2 - 3 - 4   1 - 2 - 3 - 4   1 - 2 - 3 - 4   1 - 2 - 3 - 4   (x4)

[Verse 3]
                D                  G
What we used to be, what we will become
                D                   G       
Worlds we cannot see, breakin up by one 
   A    G              A              G      A
by one, slowly we fell under a spell, one by one
G              A
Slowly we wake up

[Verse 4]
               D                             G
Fragments of a scene, from a distant stage undone
              D                  G
Little time machine, messages of love
    A     G              A
And hate, why can't we relate
G                   A            G                A
With ourselves with what we open up when it's too late 

[Solo]
D               G               A               G
1 - 2 - 3 - 4   1 - 2 - 3 - 4   1 - 2 - 3 - 4   1 - 2 - 3 - 4   (x4)


***********************************
h - hammer on
p - pull off
/ - slide
***********************************


            
            
Suggest correction
Creating personal tab
Creating personal tab
You can edit any tab online and save it as your Personal.

You can edit, replace or remove any tab part or add personal notes – all changes will be seen only by you.

Personal tabs can be accessed anytime from any device, even offline.
Learn more »
comments
print report bad tab
guest
You may want to rate the tab now too:
select rating
Wanna post a correction for this tab? Suggest correction