Oops, an error
Loading. Please wait.

Girl I Wanna Lay You Down Chords

version 3
version 3

Whole song

38,102 views 54 this week
3 commentsread comments
1 2 3 4 5
x 25
add to favorites
launch autoscroll
font size
0
reset
transpose
0
reset
simplify chords
display chords
guitar tuner
Autoscroll
slow
fast
+/-
esc
set tempo
stop
Help us to improve Ultimate-Guitar.com Take our survey!
×
Author
[Chords used]
     C barre     Dm7 barre    F barre
e|---3-----------5------------1--------------------------------------------|
B|---5-----------6------------1--------------------------------------------|
G|---5-----------5------------2--------------------------------------------|
D|---5-----------7------------3--------------------------------------------|
A|---3-----------5------------3--------------------------------------------|
E|---3-----------5------------1--------------------------------------------|

[Verse 1]
       C                 Dm7         
I come over early in the morning
            C                  Dm7
just like a heat wave, without warning
            C                            Dm7
And when I touch you my heart begins to flutter
                          C                 Dm7
'Cause you're smooth and creamy like peanut butter    Aww Yeah

[Chorus]
C                     F
Girl I wanna lay you down
       C                     F
I said Girl I wanna lay you down

[Verse 2]
          C                      Dm7
I'm gonna flood you, like a love river
         C                     Dm7
Baby the post man, is about to deliver
                 C               Dm7
Cook ya up some dinner, a little pasta
                C              Dm7
Listen to some music, a little Rasta

[Chorus]
C                     F
Girl I wanna lay you down
       C                     F
I said Girl I wanna lay you down
(Girl I wanna lay you down)

[Fill]
e|--------------------------------------------------------------------|
B|--------------------------------------------------------------------|
G|--------------------------------------------------------------------|
D|---------5-------3-3-----------------x3-----------------------------|
A|-3/5--7-----7----------7---5-5--3-----------------------------------|
E|--------------------------------------------------------------------|

e|--------------------------------------------------------------------|
B|--------------------------------------------------------------------|
G|--------------------------------------------------------------------|
D|---------5-------3-3------------------------------------------------|
A|-3/5--7-----7----------7--777--5-5--3-------------------------------|
E|--------------------------------------------------------------------|

               C                     Dm7
[Verse 3]
                C                     Dm7
So turn out the lights, bring out the candles,
             C                Dm7
wrap your arms around my love handles,
              C                     Dm7
they say the passion may not always endure,
          C                             Dm7
but this feeling that I have for you is burning up my world

[Ending chorus]
C                     F
Girl I wanna lay you down
Hooo hooo hoooooo
       C                     F
I said Girl I wanna lay you down
(girl i wanna lay you down)
       C                     F
I said Girl I wanna lay you down
       C                     F
I said Girl I wanna lay you down
C                     F
Girl I wanna lay you down
C                     F
Girl I wanna lay you down

[Ending fill]
e|--------------------------------------------------------------------|
B|--------------------------------------------------------------------|
G|--------------------------------------------------------------------|
D|---------5-------3-3-----------------x1-----------------------------|
A|-3/5--7-----7----------7---5-5--3-----------------------------------|
E|--------------------------------------------------------------------|

e|--------------------------------------------------------------------|
B|--------------------------------------------------------------------|
G|--------------------------------------------------------------------|
D|---------5-------3-3------------------------------------------------|
A|-3/5--7-----7----------7--777--5-5--3-------------------------------|
E|--------------------------------------------------------------------|

************************************

| /  Slide up

************************************
Suggest correction
comments
print report bad tab
3 comments total.
+3 reply
Gstring121 10 Jun 22, 2009 06:12 AM

Great chords.
The fills are great to. Been looking 4 tabs that had it

+3 reply
skittlepunk 146 Jul 22, 2009 01:34 PM

I think fills would be better like this
e|---------------------------|
B|---------------------------|
G|---------------------------|
D|---------------------------|
A|-3h5/7-8---7----5--5--3----|
E|---------------------------|

You can play it on both A and D if you don't feel like sliding down to 8.

+1 reply
NEsurfer 10 Oct 08, 2013 08:17 PM

Great Tab! I think the intro should go F Em7 Dm7 C with Em7 being:

e - 7
B - 9
G - 7
D - 8
A - 7
E - x

This is also played after the chorus....Cheers!

guest
You may want to rate the tab now too:
select rating
Wanna post a correction for this tab? Suggest correction