Oops, an error
Loading. Please wait.

Gone Going Tab

13,849 views 27 this week
2 commentsread comments
1 2 3 4 5
excellent!
x 6
add to favorites
launch autoscroll
font size
0
reset
how to read this tab
guitar tuner
Tab Pro tools
  • play this tab
  • loop segment
  • change instrument
  • show fretboard
  • metronome
Autoscroll
slow
fast
+/-
esc
set tempo
stop
Contributor
-------------------------------------------------------------------------------
                             Gone going- Jack Johnson
-------------------------------------------------------------------------------
Tabbed by:Jhustyne
Email:Jbrother1995@yahoo.com

Tuning:Standard


Order:intro,verse,pre-chorus,chorus,pre-chorus,chorus(2x)

intro
e|--------7-\--------4-/----------7-\--------4--|
B|--------7-\--------5-/----------7-\--------5--|
G|-----9--9-\-----6--6-/-------9--9-\-----6--6--|
D|-----9--9-\-----6--6-/-------9--9-\-----6--6--|
A|---7----7-----4----4-------7----7-----4-------|
E|----------------------------------------------|

verse
e|--------7----------------4------------|
B|--------7--------4-------5---------5--|
G|-----9--9--------5----6--6---------6--|(3x)
D|-----9--9-----6--6----6--6------7--7--|
A|--7-----7-----6--6--4----4------7--7--|
E|-----------4-----4-----------5-----5--|

pre-chorus
e|--------------------------------------|
B|--------2--------2--------7--------7--|
G|--------2--------2--------8--------8--|
D|-----4--4-----4--4-----9--9-----9--9--|
A|-----4--4-----4--4-----9--9-----9--9--|
E|--2-----2--2-----2--7-----7--7-----7--|

chorus
e|--------7-----------------4-----------|
B|--------7--------7--------5--------5--|
G|-----9--9--------8-----6--6--------6--|(3x)
D|-----9--9-----9--9-----6--6-----7--7--|
A|--7-----7-----9--9--4-----4-----7--7--|
E|-----------7-----7-----------5-----5--|


************************************

| /   slide up
| \   slide down

comments
print report bad tab
2 comments total.
0 reply
dbruneau wrote on July 20 2010, 12:21 pm

E major in the chorus. not minor

0 reply
SebTM wrote on July 2 2012, 02:31 pm

chorus
e|--------7-----------------4-----------|
B|--------9--------7--------5--------5--|
G|-----9--9--------8-----6--6--------6--|(3x)
D|-----9--9-----9--9-----6--6-----7--7--|
A|--7-----7-----9--9--4-----4-----7--7--|
E|-----------7-----7-----------5-----5--|

and it's perfect

I want to post or [tab]
guest
You may want to rate the tab now too:
select rating
Please do not post tabs as comments. Select "correction" instead!