Oops, an error
Loading. Please wait.

Gone Tab

version 5
version 5

Whole song

Interactive

5,766 views 6 this week
no commentswrite comment
1 2 3 4 5
worth learning
x 2
add to favorites
launch autoscroll
font size
0
reset
how to read this tab
guitar tuner
Tab Pro tools
  • play this tab
  • loop segment
  • change instrument
  • show fretboard
  • metronome
×
Best way to learn
"Gone"
Autoscroll
slow
fast
+/-
esc
set tempo
stop
Contributor
Difficulty
novice
-------------------------------------------------------------------------------
                             Gone - Jack Johnson
-------------------------------------------------------------------------------
Tabbed by: SicksideUK
Email:

This is a re-tabbed version of (ver3) by birdman1623.  I've made some slight 
adjustments and added the chorus and lyrics.  I thought the original was a 
pretty good tab, but difficult to read upside down.

This is not the way Jack plays the song on the "On and On" album, but 
I think this sounds good anyway. 

This is my first tab so please give your comments, thanks.

Tuning: Standard

Chords Used

   D      Bm      F#       G     Em      A
e |2|   e |2|   e |2|   e |3|   e|0|   e|5|
B |3|   B |3|   B |2|   B |3|   B|0|   B|5|
G |2|   G |4|   G |3|   G |4|   G|0|   G|6|
D |0|   D |4|   D |4|   D |5|   D|2|   D|7|
A |0|   A |2|   A |4|   A |5|   A|2|   A|7|
E |x|   E |x|   E |2|   E |3|   E|0|   E|5|


Intro

    D         Bm 

e|------2----------------|
B|------3---------3------|
G|----2---(0)-----4------|   
D|--0-----------4---(0)--|
A|------------2----------|
E|-----------------------|

Repeat 4x

Verse:

    D         F#        Bm        G

e|------2------------------------------------|
B|------3-------------------3----------------|
G|----2---(0)-----3---------4---------4------|   
D|--0-------------4-------4---(0)-----5------| 
A|--------------4---(0)-2-----------5---(0)--|
E|------------2-------------------3----------|

Repeat 3x 

    Em        Em        A         A

e|-------------------------------------------|
B|-------------------------------------------|
G|------0---------0---------6---------6------|
D|------2---------2---------7---------7------|
A|----2---(0)---2---(0)---7---(0)---7---(0)--|
E|--0---------0---------5---------5----------|

Repeat then..........

Chorus:

    D         G         Bm        A

e|------2------------------------------------|
B|------3-------------------3----------------|
G|----2---(0)-----4---------4---------6------|    
D|--0-------------5-------4---(0)-----7------|
A|--------------5---(0)-2-----------7---(0)--|
E|------------3-------------------5----------|

Repeat 3x then....... 

    D         Bm 

e|------2----------------|
B|------3---------3------|
G|----2---(0)-----4------|   
D|--0-----------4---(0)--|
A|------------2----------|
E|-----------------------|

Repeat 2x then.......

Back into verse.

Enjoy!

===============================================================================
Lyrics 

[D   F#   Bm   G]

Well look at all those fancy clothes

But these could keep us warm just like those

And what about your  soul, is it cold, is it...

[Em   A]

Straight from the mold_and ready to be sold?

[D   F#   Bm   G]

And cars and phones and diamond rings... bling, bling

Those are only removable things

And what about your mind , does it shine or...

[Em   A]

Are there things that concern you.. more than your time?

[D   G   Bm   A]

Gone, going, gone everything gone, give a damn

Gone be the birds when they don't wanna sing

Gone people... all awkward with their things, gone

[2xINTRO]

[D   F#   Bm   G]

Look at you out to make a deal

You try to be appealing but you lose your appeal

And what about those  shoes you're in today  they'll do no

[Em   A]

Good...on the bridges you've burnt along the way, oh

[E   B   C#m   A] (CHORUS)

You're willing to sell anything gone with your hurt

Leave your footprints we'll shame them with our words

Gone people... all careless and consumed, gone

Gone, going, gone everything gone, give a damn 

Gone be the birds if they don't wanna sing

Gone people... all awkward with their things, gone.
comments
We did not receive enough feedback on this tab! Please rate:
print report bad tab
1 2 3 4 5
I want to post or [tab]
guest
You may want to rate the tab now too:
select rating
Please do not post tabs as comments. Select "correction" instead!