Oops, an error
Loading. Please wait.

Good People Tab

version 1
version 1

Interactive

Video

135,639 views 33 this week
10 commentsread comments
1 2 3 4 5
x 24
add to favorites
launch autoscroll
font size
0
reset
how to read this tab
guitar tuner
Autoscroll
slow
fast
+/-
esc
set tempo
stop
Help us to improve Ultimate-Guitar.com Take our survey!
×
Artist:Jack Johnson
Song:Good People
Album:In Between Dreams
Tabbed By:Dylan

[Intro]
 (some weird scratches and mutes in the beginning)
e|----------------------------------------------------|
B|----------------------------------9s10--9--7--------|
G|--------9b11-r9p7-----7-----------------------9-----|
D|-------------------9-----------------------------9--|
A|----------------------------------------------------|
E|--7--7--------------------10--10--------------------|

e|--------------------------------------------------------|
B|--------------------------------------------------------|
G|--------9b11-r9p7-----7-----------11--11--9--11p9-------|
D|-------------------9-------------------------------11/--|
A|--------------------------------------------------------|
E|--7--7--------------------10--10------------------------|

[Verse]
        B       E      C#m      F#
e|--------------0-------4-------2--|
B|------4-------0-------5-------2--|
G|------4-------1-------6-------3--|
D|------4-------2-------6-------4--|
A|--2-2---------2---4-4---------4--|
E|----------0-0-------------2-2----|

[Chorus]
 here is the bass line thing during the chorus
e|---------------------------------------------|
B|---------------------------------------------|
G|---------------------------------------------|
D|-------1-------4s6-------6s4-----------------|
A|--2-2---------------4-4------------4s6--2-2--|
E|----------0-0-----------------2-2------------|

[Bridge]
                                    (rake)
e|-----------------------------------7------------|
B|----------------------------------8---10--7~----|
G|--------9b11-r9p7-----7----------9-----------7--|
D|-------------------9----------------------------|
A|------------------------------------------------|
E|--7--7-------------------10--10-----------------|

e|--------------------------------------------------------------|
B|--------------------------------------------------------------|
G|--------9b11-r9p7-----7----------11p10--11p10--11p10--10--9~--|
D|-------------------9------------------------------------------|
A|--------------------------------------------------------------|
E|--7--7-------------------10--10-------------------------------|

this is the weird part of the bridge, i know i dont have
it tabbed right, but its close

e|--7--------7--7--------8----9--------|
B|--7--------7--7--------8----9--------|
G|--7--(x8)--7--8--------9----10-------|   and that's all there is
D|--9-----------9-(x7)---10---11-(x?)--|   to "Good People"
A|--7-----------9--------10---11-------|
E|--------------7--------8----9--------|

 this is another jj song called "If I Could"
e|-------------------------------------|
B|-------------------------------------|
G|-------------------------------------|
D|-------------------------------7-----|
A|----4---4s7--7--------4----4s9---9/--|
E|--5---5--------0-0--2---2------------|



************************************

| p  Pull-off
| r  Release
| b  Bend
| /  Slide up
| ~  Vibrato
| s  Slide 

************************************
Suggest correction
comments
print report bad tab
10 comments total. Showing first comments.
0 reply
boonrock 10 Mar 17, 2005 12:00 AM

great song

0 reply
foofighterstyle 10 Mar 29, 2005 12:00 AM

intro is just a bit out for the trills

0 reply
LiL_rocker808 20 Apr 16, 2005 12:00 AM

jack rules

guest
You may want to rate the tab now too:
select rating
Wanna post a correction for this tab? Suggest correction