Oops, an error
Loading. Please wait.

Good People Tab

version 6
version 6

Interactive

Video

6,191 views 33 this week
no commentswrite comment
1 2 3 4 5
x 3
add to favorites
launch autoscroll
font size
0
reset
how to read this tab
guitar tuner
Autoscroll
slow
fast
+/-
esc
set tempo
stop
Help us to improve Ultimate-Guitar.com Take our survey!
×
Author
Difficulty
intermediate
/ = Slide
B = bend
P = pull off
H = hammer on

when i play this. Its sounds perfect. So if it doesn't to you. Email me and tell 
me whatss up. JesikaMarlow@hotmail.co.uk :). Rate me :D. 

                 Intro.
E|---------------------------------------------|
B|---------------------------10----B9--B7------|
G|-----9/11-11/9-7---7-------11----B9--B7------|
D|-----------------9---------------------------|
A|---------------------------------------------|
E|-7-7------------------9-9--------------------|


E|----------------------------------------------|
B|----------------------------------------------|
G|-----9/11-11/9-7---7----------11-11-10-P11----|
D|-----------------9-------------------------11-|
A|----------------------------------------------|
E|-7-7------------------9-9---------------------|


E|---------------------------------------------|
B|---------------------------10----B9--B7------|
G|-----9/11-11/9-7---7-------11----B9--B7------|
D|-----------------9---------------------------|
A|---------------------------------------------|
E|-7-7------------------9-9--------------------|


E|----------------------------------------------|
B|----------------------------------------------|
G|-----9/11-11/9-7---7----------11-11-10-P11----|
D|-----------------9-------------------------11-|
A|----------------------------------------------|
E|-7-7------------------9-9---------------------|

                 Verses.
    
  B.        E.       Cm.        Fm.
E|-----4--------0--------4----------2---------------|
B|-----4--------0--------5----------2---------------|
G|-----4--------1--------6----------3---------------|
D|-4-4-4--------2----6-6-6----------4---------------|
A|-2-2-2----2-2-2----4-4-4------4-4-4---------------|
E|----------0-0-0---------------2-2-2---------------|

Then at some point it repeats the intro once. 
It isn't exactly how he plays it, but its the same chrods it just makes it easier!


Lyrics.

You win it’s your show now
So what’s it going to be?
Cause' people will tune in
How many train wrecks do we need to see?
Before we lose touch
And we thought this was low
Well it’s bad, getting worse….

Where’d all the good people go?
I’ve been changing channels and I don’t see them on the tv shows
Where’d all the good people go?
We’ve got heaps and heaps of what we sow

They got this and that with a rattle a tat
Testing, one, two, man whatcha gonna do
Bad news misused, got too much to lose
Give me some truth now, who’s side are we on
Whatever you say
Turn on the boob tube, I’m in the mood to obey
So lead me astray
And by the way now…

Where’d all the good people go?
I’ve been changing channels and I don’t see them on the tv shows
Where’d all the good people go?
We’ve got heaps and heaps of what we sow

Sitting around feeling far away
So far away but I can feel the debris, can you feel it?
You interrupt me from a friendly conversation
To tell me how great it’s all going to be
You might notice some hesitation
'cause its important to you, it’s not important to me
way down by the edge of your whole reason
Well it's beginning to show and ALL I really want to know is…

Where’d all the good people go?
I’ve been changing channels and I don’t see them on the tv shows
Where’d all the good people go?
We got heaps and heaps of what we sow

(Where’d all the good people go?)
They got this and that with a rattle a tat
Testing one, two man whatcha gonna do
Bad news misused give me some truth
You got too much to lose
Whose side are we on today, anyway
Okay, whatever you say
Wrong or resolute but in the mood to obey
Station to station desensitizing the nation
where'd all the good people go
Going, going, gone.


Suggest correction
Give kudos to tab author, rate the tab!
1 2 3 4 5
comments
print report bad tab
guest
You may want to rate the tab now too:
select rating
Wanna post a correction for this tab? Suggest correction