Oops, an error
Loading. Please wait.

Home Tab

version 1
version 1

Acoustic

Whole song

36,357 views 33 this week
2 commentsread comments
1 2 3 4 5
accurate
x 10
add to favorites
launch autoscroll
font size
0
reset
how to read this tab
guitar tuner
Autoscroll
slow
fast
+/-
esc
set tempo
stop
Help us to improve Ultimate-Guitar.com Take our survey!
×
Author
Tuning
Capo
D A D G B E
1st fret
-----------------------------------------------------------------------------
                          HOME (ACOUSTIC) - Jack Johnson
-----------------------------------------------------------------------------
Tabbed by: mshafer
Email: michaelshafer28@gmail.com


This is a bonus track from the album "Sleep Through The Static"
Listen to the song for timing and rhythm



Tuning: D A D G B e  (DROP D)
Capo on 1st fret


- Intro -

    D      
e|------2--2-------2--2--2-------2--2--2-------2--2--2---|
B|------3--3-------3--3--3-------3--3--3-------3--3--3---|
G|------2--2-------2--2--2-------2--2--2-------2--2--2---|
D|------0--0-------0--0--0----0--0--0--0-------0--0--0---|  x4
A|--------------0---------------------------0------------|
D|--0----------------------------------------------------|



- Part 1 -


    D      
e|------2--2-------2--2--2-------2--2--2-------2--2--2---|
B|------3--3-------3--3--3-------3--3--3-------3--3--3---|
G|------2--2-------2--2--2-------2--2--2-------2--2--2---|
D|------0--0-------0--0--0----0--0--0--0-------0--0--0---|  x2
A|--------------0---------------------------0------------|
D|--0----------------------------------------------------|

I've gotta get home, there's a garden to tend. All the
fruits on the ground and the birds have all moved back...


    Em
e|------0--0-------0--0--0-------0--0--0-------0--0--0---|
B|------0--0-------0--0--0-------0--0--0-------0--0--0---|
G|------0--0-------0--0--0-------0--0--0-------0--0--0---|
D|------2--2-------2--2--2-------2--2--2-------2--2--2---|  x2
A|------2--2----2--2--2--2-------2--2--2----2--2--2--2---|
D|--2---2--2-------2--2--2----2--2--2--2-------2--2--2---|

...into my attic, whistling static, when the young learn to 
fly I will patch all the holes once again


    D      
e|------2--2-------2--2--2-------2--2--2-------2--2--2---|
B|------3--3-------3--3--3-------3--3--3-------3--3--3---|
G|------2--2-------2--2--2-------2--2--2-------2--2--2---|
D|------0--0-------0--0--0----0--0--0--0-------0--0--0---|  x2
A|--------------0---------------------------0------------|
D|--0----------------------------------------------------|



- Part 2 -


    D      
e|------2--2-------2--2--2-------2--2--2-------2--2--2---|
B|------3--3-------3--3--3-------3--3--3-------3--3--3---|
G|------2--2-------2--2--2-------2--2--2-------2--2--2---|
D|------0--0-------0--0--0----0--0--0--0-------0--0--0---|  x2
A|--------------0---------------------------0------------|
D|--0----------------------------------------------------|

Well I can't believe that my lime tree is dead, I thought
it was sleeping I guess it got fed up with...


    Em
e|------0--0-------0--0--0-------0--0--0-------0--0--0---|
B|------0--0-------0--0--0-------0--0--0-------0--0--0---|
G|------0--0-------0--0--0-------0--0--0-------0--0--0---|
D|------2--2-------2--2--2-------2--2--2-------2--2--2---|  x2
A|------2--2----2--2--2--2-------2--2--2----2--2--2--2---|
D|--2---2--2-------2--2--2----2--2--2--2-------2--2--2---|

...not being fed, and I will be too, I'll keep food in my
belly, and hope that my time isn't soon


    D      
e|------2--2-------2--2--2-------2--2--2-------2--2--2---|
B|------3--3-------3--3--3-------3--3--3-------3--3--3---|
G|------2--2-------2--2--2-------2--2--2-------2--2--2---|
D|------0--0-------0--0--0----0--0--0--0-------0--0--0---|  x2
A|--------------0---------------------------0------------|
D|--0----------------------------------------------------|



- Part 3 -


    D      
e|------2--2-------2--2--2-------2--2--2-------2--2--2---|
B|------3--3-------3--3--3-------3--3--3-------3--3--3---|
G|------2--2-------2--2--2-------2--2--2-------2--2--2---|
D|------0--0-------0--0--0----0--0--0--0-------0--0--0---|  
A|--------------0---------------------------0------------|
D|--0----------------------------------------------------|

So I'll, try to understand, what I can't...


    Em
e|------0--0-------0--0--0-------0--0--0-------0--0--0---|
B|------0--0-------0--0--0-------0--0--0-------0--0--0---|
G|------0--0-------0--0--0-------0--0--0-------0--0--0---|
D|------2--2-------2--2--2-------2--2--2-------2--2--2---|  
A|------2--2----2--2--2--2-------2--2--2----2--2--2--2---|
D|--2---2--2-------2--2--2----2--2--2--2-------2--2--2---|

...hold, in my hand, and...


    G6                        A
e|------0--0-------0--0--0-------0--0--0-------0--0--0---|
B|------0--0-------0--0--0-------2--2--2-------2--2--2---|
G|------0--0-------0--0--0-------2--2--2-------2--2--2---|
D|------0--0-------0--0--0-------2--2--2-------2--2--2---|
A|------2--2-------2--2--2----0--0--0--0----0--0--0--0---|
D|--5---5--5----5--5--5--5-------------------------------|

...whatever I find, I'll find my way back to you


    D      
e|------2--2-------2--2--2-------2--2--2-------2--2--2---|
B|------3--3-------3--3--3-------3--3--3-------3--3--3---|
G|------2--2-------2--2--2-------2--2--2-------2--2--2---|
D|------0--0-------0--0--0----0--0--0--0-------0--0--0---|  
A|--------------0---------------------------0------------|
D|--0----------------------------------------------------|



- Part 4 -


    D      
e|------2--2-------2--2--2-------2--2--2-------2--2--2---|
B|------3--3-------3--3--3-------3--3--3-------3--3--3---|
G|------2--2-------2--2--2-------2--2--2-------2--2--2---|
D|------0--0-------0--0--0----0--0--0--0-------0--0--0---|  
A|--------------0---------------------------0------------|
D|--0----------------------------------------------------|

And if you, try to find it too, 'cause this...


    Em
e|------0--0-------0--0--0-------0--0--0-------0--0--0---|
B|------0--0-------0--0--0-------0--0--0-------0--0--0---|
G|------0--0-------0--0--0-------0--0--0-------0--0--0---|
D|------2--2-------2--2--2-------2--2--2-------2--2--2---|  
A|------2--2----2--2--2--2-------2--2--2----2--2--2--2---|
D|--2---2--2-------2--2--2----2--2--2--2-------2--2--2---|

...place is overgrown, it's a waxing moon, and...


    G6                        A
e|------0--0-------0--0--0-------0--0--0-------0--0--0---|
B|------0--0-------0--0--0-------2--2--2-------2--2--2---|
G|------0--0-------0--0--0-------2--2--2-------2--2--2---|
D|------0--0-------0--0--0-------2--2--2-------2--2--2---|
A|------2--2-------2--2--2----0--0--0--0----0--0--0--0---|
D|--5---5--5----5--5--5--5-------------------------------|

...home is wherever we are if there's love there too


    D      
e|------2--2-------2--2--2-------2--2--2-------2--2--2---|
B|------3--3-------3--3--3-------3--3--3-------3--3--3---|
G|------2--2-------2--2--2-------2--2--2-------2--2--2---|
D|------0--0-------0--0--0----0--0--0--0-------0--0--0---|  x2
A|--------------0---------------------------0------------|
D|--0----------------------------------------------------|



- Part 5 -


    D      
e|------2--2-------2--2--2-------2--2--2-------2--2--2---|
B|------3--3-------3--3--3-------3--3--3-------3--3--3---|
G|------2--2-------2--2--2-------2--2--2-------2--2--2---|
D|------0--0-------0--0--0----0--0--0--0-------0--0--0---|  x2
A|--------------0---------------------------0------------|
D|--0----------------------------------------------------|


In the back of my house there's a trail that won't end,
I went walking so far that it grew back in, now there's...


    Em
e|------0--0-------0--0--0-------0--0--0-------0--0--0---|
B|------0--0-------0--0--0-------0--0--0-------0--0--0---|
G|------0--0-------0--0--0-------0--0--0-------0--0--0---|
D|------2--2-------2--2--2-------2--2--2-------2--2--2---|  x2 
A|------2--2----2--2--2--2-------2--2--2----2--2--2--2---|
D|--2---2--2-------2--2--2----2--2--2--2-------2--2--2---|

...no trail at all, only grass growing taller, I'll get
out my machete and battle with time once again


    D      
e|------2--2-------2--2--2-------2--2--2-------2--2--2---|
B|------3--3-------3--3--3-------3--3--3-------3--3--3---|
G|------2--2-------2--2--2-------2--2--2-------2--2--2---|
D|------0--0-------0--0--0----0--0--0--0-------0--0--0---|  
A|--------------0---------------------------0------------|
D|--0----------------------------------------------------|


    Em
e|------0--0-------0--0--0-------0--0--0-------0--0--0---|
B|------0--0-------0--0--0-------0--0--0-------0--0--0---|
G|------0--0-------0--0--0-------0--0--0-------0--0--0---|
D|------2--2-------2--2--2-------2--2--2-------2--2--2---| 
A|------2--2----2--2--2--2-------2--2--2----2--2--2--2---|
D|--2---2--2-------2--2--2----2--2--2--2-------2--2--2---|

But I'm bound to lose, 'cause I'll be damned if time don't
win


    D      
e|------2--2-------2--2--2-------2--2--2-------2--2--2---|
B|------3--3-------3--3--3-------3--3--3-------3--3--3---|
G|------2--2-------2--2--2-------2--2--2-------2--2--2---|
D|------0--0-------0--0--0----0--0--0--0-------0--0--0---|  x2
A|--------------0---------------------------0------------|
D|--0----------------------------------------------------|



- Part 6 -


    D      
e|------2--2-------2--2--2-------2--2--2-------2--2--2---|
B|------3--3-------3--3--3-------3--3--3-------3--3--3---|
G|------2--2-------2--2--2-------2--2--2-------2--2--2---|
D|------0--0-------0--0--0----0--0--0--0-------0--0--0---|  x2
A|--------------0---------------------------0------------|
D|--0----------------------------------------------------|


I've gotta get home there's a garden to tend, all the
seeds from the fruit buried and again


    Em
e|------0--0-------0--0--0-------0--0--0-------0--0--0---|
B|------0--0-------0--0--0-------0--0--0-------0--0--0---|
G|------0--0-------0--0--0-------0--0--0-------0--0--0---|
D|------2--2-------2--2--2-------2--2--2-------2--2--2---|  x2 
A|------2--2----2--2--2--2-------2--2--2----2--2--2--2---|
D|--2---2--2-------2--2--2----2--2--2--2-------2--2--2---|

Their own family trees teach them thank you and please as they,
spread their own roots, they watch the young fruit grow again 


    D      
e|------2--2-------2--2--2-------2--2--2-------2--2--2---|
B|------3--3-------3--3--3-------3--3--3-------3--3--3---|
G|------2--2-------2--2--2-------2--2--2-------2--2--2---|
D|------0--0-------0--0--0----0--0--0--0-------0--0--0---|  
A|--------------0---------------------------0------------|
D|--0----------------------------------------------------|


    Em
e|------0--0-------0--0--0-------0--0--0-------0--0--0---|
B|------0--0-------0--0--0-------0--0--0-------0--0--0---|
G|------0--0-------0--0--0-------0--0--0-------0--0--0---|
D|------2--2-------2--2--2-------2--2--2-------2--2--2---| 
A|------2--2----2--2--2--2-------2--2--2----2--2--2--2---|
D|--2---2--2-------2--2--2----2--2--2--2-------2--2--2---|

And this old trail will lead me right back to where it begins


    D      
e|------2--2-------2--2--2-------2--2--2-------2--2--2---|
B|------3--3-------3--3--3-------3--3--3-------3--3--3---|
G|------2--2-------2--2--2-------2--2--2-------2--2--2---|
D|------0--0-------0--0--0----0--0--0--0-------0--0--0---|  x2
A|--------------0---------------------------0------------|
D|--0----------------------------------------------------|



- Part 7 -


    D      
e|------2--2-------2--2--2-------2--2--2-------2--2--2---|
B|------3--3-------3--3--3-------3--3--3-------3--3--3---|
G|------2--2-------2--2--2-------2--2--2-------2--2--2---|
D|------0--0-------0--0--0----0--0--0--0-------0--0--0---|  
A|--------------0---------------------------0------------|
D|--0----------------------------------------------------|

So I'll, try to understand, what I can't...


    Em
e|------0--0-------0--0--0-------0--0--0-------0--0--0---|
B|------0--0-------0--0--0-------0--0--0-------0--0--0---|
G|------0--0-------0--0--0-------0--0--0-------0--0--0---|
D|------2--2-------2--2--2-------2--2--2-------2--2--2---|  
A|------2--2----2--2--2--2-------2--2--2----2--2--2--2---|
D|--2---2--2-------2--2--2----2--2--2--2-------2--2--2---|

...hold, in my hand, and...


    G6                        A
e|------0--0-------0--0--0-------0--0--0-------0--0--0---|
B|------0--0-------0--0--0-------2--2--2-------2--2--2---|
G|------0--0-------0--0--0-------2--2--2-------2--2--2---|
D|------0--0-------0--0--0-------2--2--2-------2--2--2---|
A|------2--2-------2--2--2----0--0--0--0----0--0--0--0---|
D|--5---5--5----5--5--5--5-------------------------------|

...whatever I find, I'll find my way back to you


    D      
e|------2--2-------2--2--2-------2--2--2-------2--2--2---|
B|------3--3-------3--3--3-------3--3--3-------3--3--3---|
G|------2--2-------2--2--2-------2--2--2-------2--2--2---|
D|------0--0-------0--0--0----0--0--0--0-------0--0--0---|  
A|--------------0---------------------------0------------|
D|--0----------------------------------------------------|



- Part 8 -


    D      
e|------2--2-------2--2--2-------2--2--2-------2--2--2---|
B|------3--3-------3--3--3-------3--3--3-------3--3--3---|
G|------2--2-------2--2--2-------2--2--2-------2--2--2---|
D|------0--0-------0--0--0----0--0--0--0-------0--0--0---|  
A|--------------0---------------------------0------------|
D|--0----------------------------------------------------|

And if you, try to find it too, 'cause this...


    Em
e|------0--0-------0--0--0-------0--0--0-------0--0--0---|
B|------0--0-------0--0--0-------0--0--0-------0--0--0---|
G|------0--0-------0--0--0-------0--0--0-------0--0--0---|
D|------2--2-------2--2--2-------2--2--2-------2--2--2---|  
A|------2--2----2--2--2--2-------2--2--2----2--2--2--2---|
D|--2---2--2-------2--2--2----2--2--2--2-------2--2--2---|

...place is overgrown, it's a waxing moon, and...


    G6                        A
e|------0--0-------0--0--0-------0--0--0-------0--0--0---|
B|------0--0-------0--0--0-------2--2--2-------2--2--2---|
G|------0--0-------0--0--0-------2--2--2-------2--2--2---|
D|------0--0-------0--0--0-------2--2--2-------2--2--2---|
A|------2--2-------2--2--2----0--0--0--0----0--0--0--0---|
D|--5---5--5----5--5--5--5-------------------------------|

...home is wherever we are if there's love there too


    D      
e|-------------------------------------------------------|
B|-------------------------------------------------------|
G|-------------------------------------------------------|
D|-------------------------------------------------------|
A|-------------------------------------------------------|
D|--0----------------------------------------------------|


 


| /  slide up
| \  slide down
| h  hammer-on
| p  pull-off
| ~  vibrato
| +  harmonic
| x  Mute note
=============================================================================
Suggest correction
What's this?
You can suggest a correction to this tab. Community and Mods will review your correction and vote to approve or reject it.
comments
print report bad tab
2 comments total.
+1 reply
clhatch13 95 wrote on August 29 2008, 09:54 am

In case anyone is scouring over their Sleep Thru the Static CD looking for the bonus track, it's not on there. This song is off of the Broke Down Melody Soundtrack.

+2 reply
mshafer 437 wrote on August 30 2008, 01:06 am

On the version they sold in New Zealand it does have this track on it.

guest
You may want to rate the tab now too:
select rating
Please do not post tabs as comments. Select "correction" instead!