Oops, an error
Loading. Please wait.

Home Tab

version 2
version 2

Whole song

13,356 views 9 this week
no commentswrite comment
1 2 3 4 5
excellent!
x 3
add to favorites
launch autoscroll
font size
0
reset
how to read this tab
guitar tuner
Tab Pro tools
  • play this tab
  • loop segment
  • change instrument
  • show fretboard
  • metronome
×
Best way to learn
"Home"
Autoscroll
slow
fast
+/-
esc
set tempo
stop
Contributor
Jack Johnson – Home [Movie Version] 


I’m pretty sure this is 100% accurate, but the 3-pattern chords 
are open to interpretation 
[emphasising strings and so on], so have fun!

Played in Drop D

I play it without a pick as it has a more ‘thumbed’ sound.
Besides that’s how Jack Johnson plays it.
There’s a good solo tab on here so I won’t bother with that. 
Leave Comments if you have suggestions or corrections



^ = upsweep of thumb [followed by down-sweep of fingers]

Intro 
                            
           ^   ^   ^   ^   ^   ^   ^     ^   ^   ^   ^   ^   ^      
e|---2-----2-2-2---2-2-2---2-2-2---2-2---2-2-----0-0-0---0-0-0---| >
B|---3-----3-3-3---3-3-3---3-3-3---3-3---3-3-3---3-3-3---3-3-3---| >
G|---2-----2-2-2---2-2-2---2-2-2--44-2---2-2-0---0-0-0---0-0-0---| >
D|---0-----0-0---0-0-0-0-0-0-0-0-------4-4---0-2-2-2-2---2-2-2---| >
A|---0-------------------------------------------------2---------| >
D|---0-----------------------------------------------------------| >



                  
       ^   ^   ^      ^   ^   ^   ^   ^   ^   ^   ^                          
e|-----0-0-0---0------x-x-x---x-x-x---x-x-x---0-0-0--------|>
B|-----3-3-3---3-3----3-3-3---3-3-3---3-3-3---3-3-3--------|>
G|-----0-0-0---0-0----0-0-0---0-0-0---0-0-0---0-0-0--------|>
D|---2-2-2-2---2-2/5--0-0-0-0-0-0-0---0-0-0-2-2-2-2--------|>
A|-----------2--------x-x-x---------2----------------------|>
D|------------------5--------------------------------------|>
             [I put my thumb here]





     ^   ^   ^   ^   ^   ^   ^   ^        
e|---2-2-2---2-2-2---2-2-2---2-2-2-------------------------|>
B|---3-3-3---3-3-3---3-3-3---3-3-3-------------------------|>
G|---2-2-2---2-2-2---2-2-2---2-2-2-------------------------|>
D|---0-0-0---0-0-0-0-0-0-0---0-0-0-------------------------|>
A|---0-0-0-0-0-0-0---------0-0-0-0-------------------------|>
D|-0-------------------------------------------------------|>

Repeat this section once more before verse with soloing over it
[Listen to the song for timing and rhythm]








Verse is just this again [x2],

     ^   ^   ^   ^   ^   ^   ^   ^        
e|---2-2-2---2-2-2---2-2-2---2-2-2-------------------------|>
B|---3-3-3---3-3-3---3-3-3---3-3-3-------------------------|>
G|---2-2-2---2-2-2---2-2-2---2-2-2-------------------------|>
D|---0-0-0---0-0-0-0-0-0-0---0-0-0-------------------------|>
A|---0-0-0-0-0-0-0---------0-0-0-0-------------------------|>
D|-0-------------------------------------------------------|>
 “Gotta get home..”






Then this [x4];

        ^   ^   ^   ^ 
e|------0-0-0---0-0-0-------------------| >
B|------3-3-3---3-3-3-------------------| >
G|------0-0-0---0-0-0-------------------| >
D|----2-2-2-2---2-2-2-------------------| >
A|------------2-------------------------| >
D|--------------------------------------| >
  “..Into my attic, whistling static..”

 Then back to verse again.

The chorus is just the slidey part of the intro again!
    



comments
We did not receive enough feedback on this tab! Please rate:
print report bad tab
1 2 3 4 5
I want to post or [tab]
guest
You may want to rate the tab now too:
select rating
Please do not post tabs as comments. Select "correction" instead!