Oops, an error
Loading. Please wait.

Hope Bass Tab

2,765 views 1 this week
no commentswrite comment
1 2 3 4 5
3 more votes to show rating
add to favorites
launch autoscroll
font size
0
reset
guitar tuner
Autoscroll
slow
fast
+/-
esc
set tempo
stop
Help us to improve Ultimate-Guitar.com Take our survey!
×
Author
Difficulty
novice
HOPE
By JACK JOHNSON

VERSE:
G|------------------------------------------|
D|------------------------------------------|
A|-10~------10-10~--10-12~------12-12~--15--|
E|-----1012----------------1214-------------| x4

CHORUS:
G|-----------------------------|-------------------------|
D|-10-10~-10-9-9~--9-7~---7-9--|-10-10~-10-9-9~--9-7~----|
A|-----------------------------|-------------------------|
E|-----------------------------|-------------------------|

- Verse
- Chorus

INTERLUDE:
G|----------------------------|
D|--------10~----9~----7~-----|
A|-10~------------------------|
E|----------------------------|

- Verse
- Rest
- Verse
- Chorus
- Interlude
- Verse (x8)

Suggest correction
Give kudos to tab author, rate the tab!
1 2 3 4 5
comments
print report bad tab
guest
You may want to rate the tab now too:
select rating
Wanna post a correction for this tab? Suggest correction