Oops, an error
Loading. Please wait.

Imagine Tab

version 2
version 2

Whole song

Interactive

2,747 views 6 this week
no commentswrite comment
1 2 3 4 5
please rate
add to favorites
launch autoscroll
font size
0
reset
how to read this tab
guitar tuner
Tab Pro tools
  • play this tab
  • loop segment
  • change instrument
  • show fretboard
  • metronome
×
Best way to learn
"Imagine"
Autoscroll
slow
fast
+/-
esc
set tempo
stop
Contributor
Difficulty
Capo
novice
6th fret
This is Jack Johnsons acoustic version of Imagine by John Lennon

http://jackjohnsonmusic.com
http://www.youtube.com/watch?v=MHCPfs6EGCA

Enjoy!



  Capo on the 6th fret

  Intro/Verse

E|----0-----0-----0---0-----0-----0---0-----0-----0---0-----0-----0--| x2/x3
B|------1-----1---------1-----1---------1-----1---------1-----1------|
G|--------0-----0---------4-----0---------2-----2---------2-----0----|
D|------------------------------0---3---------------3-----------0----|
A|--3---------------3------------------------------------------------|
E|-------------------------------------------------------------------|
 

E|----0-----0-----0---0-----0-----0---0-----0-----0---0-----0-----0--| x1 
B|------1-----1---------1-----1---------1-----1---------1-----1------|
G|--------0-----0---------4-----0---------2-----2---------2-----2----|
D|------------------------------0---3---------------3----------------|
A|--3---------------3------------------------------------------------|
E|-------------------------------------------------------------------|



  Pre-Chorus

E|----0-----0-----0---0-----0-----0---1-----1-----1---1-----1-----0-
B|------1-----1---------1-----1---------3-----3---------3-----3-----
G|--------2-----2---------0-----0---------2-----2---------2-----0---
D|--3---------------2---------------0---------------3-----------0---
A|------------------------------------------------------------------
E|------------------------------------------------------------------


  ---3-----3-----3---3-----3-----3----| x1
  -----0-----0---------0-----0--------|
  -------0-----0---------0-----0------|
  ------------------------------------|
  ------------------------------------|
  -3---------------3---------------3--|



  Chorus

E|----1-----1-----1---3-----3-----0---0-----0-----0---0-----0------| x3
B|------1-----1---------0-----0---------1-----1---------0-----0-0--|
G|--------2-----2---------0-----0---------0-----0---------1-----0--|
D|----------------------------------------------0------------------|
A|----------------------------------3------------------------------|
E|--1---------------3-------------------------------0--------------|


E|----1-----1-----1---3-----3-----0---0-----0-----0---0-----0-----0--| x1
B|------1-----1---------0-----0---------1-----1---------1-----1------|
G|--------2-----2---------0-----0---------0-----0---------0-----0----|
D|-------------------------------------------------------------------|
A|----------------------------------3---------------3----------------|
E|--1---------------3------------------------------------------------|

  Verse      |
  Pre-Chorus |
  Chorus     | x3

  End the last chorus like this

E|----1-----1-----1---3-----3-----0-------|
B|------1-----1---------0-----0--------1--|
G|--------2-----2---------0-----0-----0---|
D|-----------------------------------2----|
A|----------------------------------3-----|
E|--1---------------3---------------------|


Tab by Niclas Sjöstedt, sigmatoon@hotmail.com
comments
We did not receive enough feedback on this tab! Please rate:
print report bad tab
1 2 3 4 5
I want to post or [tab]
guest
You may want to rate the tab now too:
select rating
Please do not post tabs as comments. Select "correction" instead!