Oops, an error
Loading. Please wait.

Losing Hope Tab

6,146 views 9 this week
2 commentsread comments
1 2 3 4 5
accurate
x 3
add to favorites
launch autoscroll
font size
0
reset
how to read this tab
guitar tuner
Autoscroll
slow
fast
+/-
esc
set tempo
stop
Help us to improve Ultimate-Guitar.com Take our survey!
×
Author
jackins 57
-------------------------------------------------------------------------------
                             Losing Hope – Jack Johnson

All music and lyrics written by and property of Jack Johnson
Tabbed by: Jackins
Email:jackins7@msn.com

Tuning: Standard 


Intro
     Am         C    G
e|------------------------------------------------------------------------|
B|-------1----------------------------------------------------------------|
G|-----2-----2-----0-----0------------------------------------------------|
D|---2-----2-----2-----0--------[x2]--------------------------------------|
A|-0-----------3----------------------------------------------------------|
E|-------------------3----------------------------------------------------|

Verse
     Am         C    G                 F
   I got a faulty parachute....
e|-------------------------------------1----------------------------------|
B|-------1-----------------------------1----------------------------------|
G|-----2-----2-----0-----0-------------2----------------------------------|
D|---2-----2-----2-----0--------[x4]---3----------------------------------|
A|-0-----------3-----------------------3----------------------------------|
E|-------------------3-----------------1----------------------------------|

     Am         C    G                 F
   Well somebody’s something...
e|-------------------------------------1----------------------------------|
B|-------0-----------------------------1----------------------------------|
G|-----2-----0-----0-----0-------------2----------------------------------|
D|---2-----2-----2-----0--------[x4]---3----------------------------------|
A|-0-----------3-----------------------3----------------------------------|
E|-------------------3-----------------1----------------------------------|
 
Chorus
   C      G       Am
  Losing hope is easy...
e|--------------------0-----0---------------------------------------------|
B|--------------------1-----1---------------------------------------------|
G|------0------0------2-----2---------------------------------------------|
D|----2------0-----2--2-----2---------------------------------------------|
A|-3------2------0----0-----0---------------------------------------------|
E|------------------------------------------------------------------------|

   Dm            G
  When your only friend is gone...
e|--1------------3--------------------------------------------------------|
B|--3------------0--------------------------------------------------------|
G|--2------------0--------------[x3]-------0---0-----0---0----------------|
D|--0------------0-----------------------2---2-----0---0------------------|
A|---------------2---------------------3---------2------------------------|
E|---------------3--------------------------------------------------------|

Interlude
     Am         C    G
e|------------------------------------------------------------------------|
B|-------1----------------------------------------------------------------|
G|-----2-----2-----0-----0------------------------------------------------|
D|---2-----2-----2-----0--------[x4]--------------------------------------|
A|-0-----------3----------------------------------------------------------|
E|-------------------3----------------------------------------------------|


Verse
     Am         C    G                 F
   The mark was left...
e|-------------------------------------1----------------------------------|
B|-------1-----------------------------1----------------------------------|
G|-----2-----2-----0-----0-------------2----------------------------------|
D|---2-----2-----2-----0--------[x4]---3----------------------------------|
A|-0-----------3-----------------------3----------------------------------|
E|-------------------3-----------------1----------------------------------|

Chorus
   C      G       Am
  Losing hope is easy...
e|--------------------0-----0---------------------------------------------|
B|--------------------1-----1---------------------------------------------|
G|------0------0------2-----2---------------------------------------------|
D|----2------0-----2--2-----2---------------------------------------------|
A|-3------2------0----0-----0---------------------------------------------|
E|------------------------------------------------------------------------|

   Dm            G
  When your only friend is gone...
e|--1------------3--------------------------------------------------------|
B|--3------------0--------------------------------------------------------|
G|--2------------0--------------[x3]-------0---0-----0---0----------------|
D|--0------------0-----------------------2---2-----0---0------------------|
A|---------------2---------------------3---------2------------------------|
E|---------------3--------------------------------------------------------|

Interlude
     Am         C    G
e|------------------------------------------------------------------------|
B|-------1----------------------------------------------------------------|
G|-----2-----2-----0-----0------------------------------------------------|
D|---2-----2-----2-----0--------[x4]--------------------------------------|
A|-0-----------3----------------------------------------------------------|
E|-------------------3----------------------------------------------------|

Verse
     Am         C    G                 F
   Feed The Fool...
e|-------------------------------------1----------------------------------|
B|-------1-----------------------------1----------------------------------|
G|-----2-----2-----0-----0-------------2----------------------------------|
D|---2-----2-----2-----0--------[x8]---3----------------------------------|
A|-0-----------3-----------------------3----------------------------------|
E|-------------------3-----------------1----------------------------------|

Chorus
   C      G       Am
  Losing hope is easy...
e|--------------------0-----0---------------------------------------------|
B|--------------------1-----1---------------------------------------------|
G|------0------0------2-----2---------------------------------------------|
D|----2------0-----2--2-----2---------------------------------------------|
A|-3------2------0----0-----0---------------------------------------------|
E|------------------------------------------------------------------------|

   Dm            G
  When your only friend is gone...
e|--1------------3--------------------------------------------------------|
B|--3------------0--------------------------------------------------------|
G|--2------------0----------[x3]-------0---0-----0---0--------------------|
D|--0------------0-------------------2---2-----0---0----------------------|
A|---------------2-----------------3---------2----------------------------|
E|---------------3--------------------------------------------------------|

Ending
C      G       Am
  Hanging on is easy...
e|--------------------0-----0---------------------------------------------|
B|--------------------1-----1---------------------------------------------|
G|------0------0------2-----2---------------------------------------------|
D|----2------0-----2--2-----2---------------------------------------------|
A|-3------2------0----0-----0---------------------------------------------|
E|------------------------------------------------------------------------|

   Dm            G
  When you’ve got a friend to call...
e|--1------------3--------------------------------------------------------|
B|--3------------0--------------------------------------------------------|
G|--2------------0--------------[x3]-------0---0-----0---0----------------|
D|--0------------0-----------------------2---2-----0---0------------------|
A|---------------2---------------------3---------2------------------------|
E|---------------3--------------------------------------------------------|

     Am         C    G
e|------------------------------------------------------------------------|
B|-------1----------------------------------------------------------------|
G|-----2-----2-----0-----0------------------------------------------------|
D|---2-----2-----2-----0--------[x2]--------------------------------------|
A|-0-----------3----------------------------------------------------------|
E|-------------------3----------------------------------------------------|


This is my first tab please rate =]

| /  slide up
| \  slide down
| h  hammer-on
| p  pull-off
| ~  vibrato
| +  harmonic
| x  Mute note
===============================================================================
Suggest correction new What's this?
You can suggest a correction to this tab. Community and Mods will review your correction and vote to approve or reject it.
comments
We did not receive enough feedback on this tab! Please rate:
print report bad tab
1 2 3 4 5
2 comments total.
-1 reply
BloodPheasant 41 wrote on June 18 2009, 08:48 pm

This is simply incorrect.

If you listen to the song, he clearly uses


|-------------------------------
|------0-1----------------------
|--------------------0-------0--
|----2-------0-----2-------0----
|--0-------------3--------------
|------------------------3------
[/tab
The hard part on the above is getting the rhythm right.

0 reply
jackins 57 wrote on June 22 2009, 07:39 am

Sorry but this is my interpretation of the song, how I play it and it sounds right to me, and as I can find no live footage to verify either way of playing it I'll maintain that mine's right

guest
You may want to rate the tab now too:
select rating
Please do not post tabs as comments. Select "correction" instead!