Oops, an error
Loading. Please wait.

Losing Keys Tab

version 2
version 2

Whole song

5,193 views 6 this week
1 commentread comment
1 2 3 4 5
please rate
add to favorites
launch autoscroll
font size
0
reset
how to read this tab
guitar tuner
Tab Pro tools
  • play this tab
  • loop segment
  • change instrument
  • show fretboard
  • metronome
×
Best way to learn
"Losing Keys"
Autoscroll
slow
fast
+/-
esc
set tempo
stop
Contributor
Difficulty
Tuning
novice
D# G# C# F# A# D#
hey everybody this is my first tab of losing keys by jack johnson. he is my idol. 
so i hope u like it and and rate it i will try ta make some new ones. peace, brad

  b= bend
  h= half bend
  r= return
  /= slide

        G
Don't worry
C                              G
Everybody in the room notices you
G
Sit back and relax
               C
The night is early
                  G
We are about to overdo it
Am7                                                D
So come and tell me something that you've already told me
Am7                                   D
Cause everybody's heard all of your stories
                              G
I'm hoping some of them are true

e|---------------------------------------------------|
B|---------------------------------------------------|
G|----------0-------------0--------------------------|
D|--b9r-h7-------b9r-b11-----------------------------|
A|---------------------------------------------------|
E|---------------------------------------------------|
            G
I've been losing lots of keys lately,
  D
I don't know what that means
                    Em                                             C
But maybe I've been better off with things that can't be locked at all
            G
I've been feeling kind of sea sick lately,
D
See you reaching to me gonna save me
Em                                         C
You were me, I would much rather take the fall

Am7
The world has its ways
D
To quiet us down
Am7
The world has its ways
D                           C
To quiet us down comes the rain
                        D
Down comes our spirits again
                     C
But down comes the strength
                   D
To lift us up and then...

-------------solo/chorus-------------

e|-------------------------------------------------------------|
B|-------------------------------------------------------------|
G|--14-12------14-12-----14-12------14-12------14-12-----14----|
D|--------14---------14-------------------14---------14--------|
A|-------------------------------------------------------------|
E|-------------------------------------------------------------|
					(2nd time)
e|-------------------------------------------------------------|
B|--15-12------------------------------------------------------|
G|--------14-14-12----------12-14b15----(15/0)-----------------|
D|-----------------14-12-14------------------------------------|
A|-------------------------------------------------------------|x2
E|-------------------------------------------------------------|

G          D
Been going upwind now
Em
For too long
C
Forget how
G
To let go
D
Seems too hard
Em
Too late now
C
To turn around

Am7
The world has its ways
D
To quiet us down
Am7
The world has its ways
D                           C
To quiet us down comes the rain
                         D
Down go our spirits again
                 C
Down comes the strength
                   D
To lift us up and then...

e|---------------------------------------------------|
B|---------------------------------------------------|
G|----------0-------------0--------------------------|
D|--b9r-h7-------b9r-b11-----------------------------|
A|---------------------------------------------------|
E|---------------------------------------------------|

e|-------------------------------------------------------------|
B|-------------------------------------------------------------|
G|--14-12------14-12-----14-12------14-12------14-12-----12----|
D|--------14---------14-------------------14---------14--------|
A|-------------------------------------------------------------|
E|-------------------------------------------------------------|
					
e|-------------------------------------------------------------|
B|------------------15-12--------------------------------------|
G|---14-12---14-12--------14-14b-------------------------------|
D|---------14--------------------------------------------------|
A|-------------------------------------------------------------|
E|-------------------------------------------------------------|

e|-------------------------------------------------------------|
B|-------------------------------------------------------------|
G|--14-12------14-12-----14-12------14-12------14-12-----12----|
D|--------14---------14-------------------14---------14--------|
A|-------------------------------------------------------------|
E|-------------------------------------------------------------|
					
e|-------------------------------------------------------------|
B|--15-12------------------------------------------------------|
G|--------14-14-12----------12-14b15---------------------------|
D|-----------------14-12-14------------------------------------|
A|-------------------------------------------------------------|
E|-------------------------------------------------------------|

e|-------------------------------------------------------------|
B|-------------------------------------------------------------|
G|--14-12------14-12-----14-12---14-12-------------------------|
D|--------14---------14----------------14-14-12-9-12-14--------|
A|-------------------------------------------------------------|
E|-------------------------------------------------------------|
					
e|-------------------------------------------------------------|
B|-------------------------------------------------------------|
G|--12-14-14-12-------12-14-12-14-12-14b-----------------------|
D|--------------12-14------------------------------------------|
A|-------------------------------------------------------------|
E|-------------------------------------------------------------|
comments
We did not receive enough feedback on this tab! Please rate:
print report bad tab
1 2 3 4 5
1 comment total.
0 reply
Mr.Dr.Pepper wrote on December 17 2009, 06:52 pm

Thank you! I've been waiting forever for a good tab of this song!
I've only been playing the solo/chorus because it was the only part I had figured out, and the way I play it is:


e|---------------------------------------------------------------------------------------------------------------|
B|-----------------------------------------------------------------------------2h15------------------------------|
G|-12h14-12-----12h14-12-----12h14-12-----12h14-12-----12h14-12-----12h14----------14-12h14-12---------12-14b15--|
D|---------14-----------14------------------------14-----------14-----------------------------14-12h14-----------|
A|---------------------------------------------------------------------------------------------------------------|
E|---------------------------------------------------------------------------------------------------------------|

I want to post or [tab]
guest
You may want to rate the tab now too:
select rating
Please do not post tabs as comments. Select "correction" instead!