Oops, an error
Loading. Please wait.

Lullaby Tab

version 2
version 2

Whole song

1,825 views 3 this week
no commentswrite comment
1 2 3 4 5
please rate
add to favorites
launch autoscroll
font size
0
reset
how to read this tab
guitar tuner
Autoscroll
slow
fast
+/-
esc
set tempo
stop
Help us to improve Ultimate-Guitar.com Take our survey!
×
Author
Difficulty
Capo
Alex H 41
intermediate
1st fret
Note:  I was browsing for the tabs of this song and only found the version
of Richard Y, which is pretty good, but not exactly as I hear it in the song.
I used his work as a basic to make it sound exactly (at least I think so)
as it is in the original version. Enjoy, and thanks a lot to Richard!

I hope you guys like this!


[Capo 1]

Intro

e |----------------|----------------|----------------|----------------|
B |----------------|----------------|----------------|-1-------0------|
G |----------------|----------------|----------------|-----0-------0--|
D |----------------|----------------|----------------|----------------|
A |----------------|----------------|----------------|-3-------2------|
E |----------------|----------------|----------------|----------------|

   Am                                E
e |-----0----------|-----0----------|-----0----------|-----0----------|
B |-----1---------1|-----1---------0|-----0---------0|-----0---------0|
G |-----2-----2----|-----2-----2----|-----0-----0----|-----0-----0----|
D |-------------2--|-------------2--|-------------2--|-------------2--|
A |-0-------0------|-0-------0------|----------------|----------------|
E |----------------|----------------|-0-------0------|-0-------0------|

   F                                 G
e |-----1----------|-----1----------|-----3----------|-----3----------|
B |-----1---------1|-----1---------1|-----0---------0|-----0---------0|
G |-----2-----2----|-----2-----2----|-----0-----0----|-----0-----0----|
D |-------------3--|-------------3--|-------------0--|-------------0--|
A |----------------|----------------|----------------|----------------|
E |-1-------1------|-1-------1------|-3-------3------|-3-------3------|


Verse 1
   C
e |-----0----------|-----0----------|-----0----------|-----0----------|
B |-----1---------1|-----1---------1|-----1---------1|-----1---------1|
G |-----0-----0----|-----0-----0----|-----0-----0----|-----0-----0----|
D |-------------2--|-------------2--|-------------2--|-------------2--|
A |-3-------3------|-3-------3------|-3-------3------|-3-------3------|
E |----------------|----------------|----------------|----------------|

 1. When you're so lonely             lying in bed
 2. EVeryone's sleeping               all through the house

   F                                 A#
e |-----1----------|-----1----------|----------------|----------------|
B |-----1---------1|-----1---------1|-----3---------3|-----3---------3|
G |-----2-----2----|-----2-----2----|-----3-----3----|-----3-----3----|
D |-------------3--|-------------3--|-----3-------3--|-----3-------3--|
A |----------------|----------------|-1-------1------|-1-------1------|
E |-1-------1------|-1-------1------|----------------|----------------| X2

    night's closed its eyes but you   can't rest your head
you  wish  you  could dream but for-got to somehow

Chorus
   G                                 C
e |-----3----------|-----3----------|-----0----------|-----0----------|
B |-----0---------0|-----0---------0|-----1---------1|-----1---------1|
G |-----0-----0----|-----0-----0----|-----0-----0----|-----0-----0----|
D |-------------0--|-------------0--|-------------2--|-------------2--|
A |----------------|----------------|-3-------3------|-3-------3------|
E |-3-------3------|-3-------3------|----------------|----------------|

Sing this lullaby...           to your-self
   A#               G                C
e |----------------|-----3----------|-----0----------|-----0----------|
B |-----3---------3|-----0---------0|-----1---------1|-----1---------1|
G |-----3-----3----|-----0-----0----|-----0-----0----|-----0-----0----|
D |-----3-------3--|-------------0--|-------------2--|-------------2--|
A |-1-------1------|----------------|-3-------3------|-3-------3------|
E |----------------|-3-------3------|----------------|----------------|

Sing this lullaby...           to your-self

Verse 2
   C
e |-----0----------|-----0----------|-----0----------|-----0----------|
B |-----1---------1|-----1---------1|-----1---------1|-----1---------1|
G |-----0-----0----|-----0-----0----|-----0-----0----|-----0-----0----|
D |-------------2--|-------------2--|-------------2--|-------------2--|
A |-3-------3------|-3-------3------|-3-------3------|-3-------3------|
E |----------------|----------------|----------------|----------------|

 1. If   you   are   waiting,         waiting    for   me
 2. I'll  be  home   Sunday,          just   in   one  week

   F                                 A#
e |-----1----------|-----1----------|----------------|----------------|
B |-----1---------1|-----1---------1|-----3---------3|-----3---------3|
G |-----2-----2----|-----2-----2----|-----3-----3----|-----3-----3----|
D |-------------3--|-------------3--|-----3-------3--|-----3-------3--|
A |----------------|----------------|-1-------1------|-1-------1------|
E |-1-------1------|-1-------1------|----------------|----------------| X2

    I'll  be  home   soon darling,      I guarantee
    dry   up   your  tears,     if    you  start  to   weep

Chorus
   C
e |-----3----------|-----3----------|-----0----------|-----0----------|
B |-----0---------0|-----0---------0|-----1---------1|-----1---------1|
G |-----0-----0----|-----0-----0----|-----0-----0----|-----0-----0----|
D |-------------0--|-------------0--|-------------2--|-------------2--|
A |----------------|----------------|-3-------3------|-3-------3------|
E |-3-------3------|-3-------3------|----------------|----------------|

Sing this lullaby...           to your-self
   A#               G                C
e |----------------|-----3----------|-----0----------|-----0----------|
B |-----3---------3|-----0---------0|-----1---------1|-----1---------1|
G |-----3-----3----|-----0-----0----|-----0-----0----|-----0-----0----|
D |-----3-------3--|-------------0--|-------------2--|-------------2--|
A |-1-------1------|----------------|-3-------3------|-3-------3------|
E |----------------|-3-------3------|----------------|----------------|

Sing this lullaby...           to your-self

Bridge
   Am                                E
e |-----0----------|-----0----------|-----0----------|-----0----------|
B |-----1---------1|-----1---------1|-----0---------0|-----0---------0|
G |-----2-----2----|-----2-----2----|-----0-----0----|-----0-----0----|
D |-------------2--|-------------2--|-------------2--|-------------2--|
A |-0-------0------|-0-------0------|----------------|----------------|
E |----------------|----------------|-0-------0------|-0-------0------|

    Lullaby,                      I'm not nearby

   F                                 G
e |-----1----------|-----1----------|-----3----------|-----3----------|
B |-----1---------2|-----1---------1|-----0---------0|-----0---------0|
G |-----2-----2----|-----2-----2----|-----0-----0----|-----0-----0----|
D |-------------3--|-------------3--|-------------0--|-------------0--|
A |----------------|----------------|----------------|----------------|
E |-1-------1------|-1-------1------|-3-------3------|-3-------3------|

Sing this lullaby...           to your-self

   F                                 G
e |-----1----------|-----1----------|-----3----------|-----3----------|
B |-----1---------2|-----1---------1|-----0---------0|-----0---------0|
G |-----2-----2----|-----2-----2----|-----0-----0----|-----0-----0----|
D |-------------3--|-------------3--|-------------0--|-------------0--|
A |----------------|----------------|----------------|----------------|
E |-1-------1------|-1-------1------|-3-------3------|-3-------3------|

    Don't you cry,             no     don't you cry
   E                                 Am
e |-----0----------|-----0----------|-----0----------|-----0----------|
B |-----0---------0|-----0---------0|-----1---------1|-----1---------1|
G |-----0-----0----|-----0-----0----|-----2-----2----|-----2-----2----|
D |-------------2--|-------------2--|-------------2--|-------------2--|
A |----------------|----------------|-0-------0------|-0-------0------|
E |-0-------0------|-0-------0------|----------------|----------------|

Sing this lullaby...           to your-self

Verse 3
   C
e |-----0----------|-----0----------|-----0----------|-----0----------|
B |-----1---------1|-----1---------1|-----1---------1|-----1---------1|
G |-----0-----0----|-----0-----0----|-----0-----0----|-----0-----0----|
D |-------------2--|-------------2--|-------------2--|-------------2--|
A |-3-------3------|-3-------3------|-3-------3------|-3-------3------|
E |----------------|----------------|----------------|----------------|

Well it  ain't  the   first   time,    won't  be  the   last

        F                C                G               E
     e |--------------------------------|--------------------------------|
     B |--------------------------------|-0---------------0--------------|
     G |-2---------------0--------------|(0)-------------(0)-------------|
     D |(3)-------------(2)-------------|(0)-------------(2)-------------|
     A |(3)--------------3--------------|--------------------------------|
     E |-1--------------(0)-------------|-3---------------0--------------|

Won't you remember       these words to   help the        time

        Am                          C   G
     e |-1--------------|----------------|
     B |-1--------------|-------0---1---3|
     G |-2--------------|----------------|
     D |-2--------------|----------------|
     A |-0--------------|-------0---3---2|
     E |----------------|----------------|

         pass

Verse 1
   C
e |-----0----------|-----0----------|-----0----------|-----0----------|
B |-----1---------1|-----1---------1|-----1---------1|-----1---------1|
G |-----0-----0----|-----0-----0----|-----0-----0----|-----0-----0----|
D |-------------2--|-------------2--|-------------2--|-------------2--|
A |-3-------3------|-3-------3------|-3-------3------|-3-------3------|
E |----------------|----------------|----------------|----------------|

 1. When you're so lonely             lying in bed
 2. EVeryone's sleeping               all through the house

   F                                 A#
e |-----1----------|-----1----------|----------------|----------------|
B |-----1---------1|-----1---------1|-----3---------3|-----3---------3|
G |-----2-----2----|-----2-----2----|-----3-----3----|-----3-----3----|
D |-------------3--|-------------3--|-----3-------3--|-----3-------3--|
A |----------------|----------------|-1-------1------|-1-------1------|
E |-1-------1------|-1-------1------|----------------|----------------| X2

    night's closed its eyes but you   can't rest your head
you  wish  you  could dream but for-got to somehow

Chorus
   G                                 C
e |-----3----------|-----3----------|-----0----------|-----0----------|
B |-----0---------0|-----0---------0|-----1---------1|-----1---------1|
G |-----0-----0----|-----0-----0----|-----0-----0----|-----0-----0----|
D |-------------0--|-------------0--|-------------2--|-------------2--|
A |----------------|----------------|-3-------3------|-3-------3------|
E |-3-------3------|-3-------3------|----------------|----------------|

Sing this lullaby...           to your-self
   A#               G                C
e |----------------|-----3----------|-----0----------|-----0----------|
B |-----3---------3|-----0---------0|-----1---------1|-----1---------1|
G |-----3-----3----|-----0-----0----|-----0-----0----|-----0-----0----|
D |-----3-------3--|-------------0--|-------------2--|-------------2--|
A |-1-------1------|----------------|-3-------3------|-3-------3------|
E |----------------|-3-------3------|----------------|----------------|

Sing this lullaby...           to your-self

Ending
   F                                 G
e |-----1----------|----------------|-----3----------|-----3----------|
B |-----1---------1|-----1----------|-----0---------0|-----0---------0|
G |-----2-----2----|-----2-----2---2|-----0-----0----|-----0-----0----|
D |-------------3--|-------------3--|-------------0--|-------------0--|
A |----------------|----------------|----------------|----------------|
E |-1-------1------|-1-------1------|-3-------3------|-3-------3------|

Sing this lullaby...                 Sing this lullaby...
   A#               G                C
e |----------------|-----3----------|----------------|----------------|
B |-----3---------3|-----0---------0|-----1---1/3----|-1--------------|
G |-----3-----3----|-----0-----0----|-----0---0-0----|-0--------------|
D |-----3-------3--|-------------0--|----------------|-2--------------|
A |-1-------1------|----------------|-3-------3/5----|-3--------------|
E |----------------|-3-------3------|----------------|----------------|

Sing this lullaby...           to your-self




If the picking seems to difficult, you could also try this version.
When played smoothly you can hardly hear the difference ;)

   C
e |-----0----------|-----0----------|-----0----------|-----0----------|
B |-----1---------1|-----1---------1|-----1---------1|-----1---------1|
G |-----0-------0--|-----0-------0--|-----0-------0--|-----0-------0--|
D |-----------2----|-----------2----|-----------2----|-----------2----|
A |-3-------3------|-3-------3------|-3-------3------|-3-------3------|
E |----------------|----------------|----------------|----------------|
Suggest correction
What's this?
You can suggest a correction to this tab. Community and Mods will review your correction and vote to approve or reject it.
comments
We did not receive enough feedback on this tab! Please rate:
print report bad tab
1 2 3 4 5
guest
You may want to rate the tab now too:
select rating
Please do not post tabs as comments. Select "correction" instead!