Oops, an error
Loading. Please wait.

Mediocre Bad Guys Chords

version 2
version 2

Whole song

2,795 views 6 this week
1 commentread comment
1 2 3 4 5
excellent!
x 5
add to favorites
launch autoscroll
font size
0
reset
transpose
0
reset
- display chords -
guitar tuner
Tab Pro tools
  • play this tab
  • loop segment
  • change instrument
  • show fretboard
  • metronome
Autoscroll
slow
fast
+/-
esc
set tempo
stop
Contributor
Difficulty
intermediate
Another tab from stodman!


Intro x2
|------------------------------------|--------------|
|------------------------------------|--------------|
|------------------------------------|--------------|
|------------------------------------|--------------|
|------7/9-9-7--5--7/9-9-7---7/9-9-7-|-------5-7/9-7|
|--5-7---------------------5---------|-3-5/7--------|

Bm                 A                    E
  Don't give me no comic book sad looks no more,
Bm             A         E                          Bm
  Please don't use those same excuses you've used before,
  A       E
  mmmmm,  mmm
Bm                  A                  E
  you told yourself so many times it's okay,
Bm            A                            E
  So eager to try, but you just don't know how to come back down,

Chorus
            Bm
And now you beat me up and break me down,
D
Hoping I don't come around,
A                               (last mesure of intro)
Kick me when I'm on the ground,
Bm
Beat me up, break me down,
D
Hoping I don't come around,
A                               (last mesure of intro)
Kick me when I'm on the ground,


Bm                     A                       E
  Well how about those people I know, that you know the ones I mean,
       Bm                     A                             E
Not so good, not so bad, only know what they have, and they have only what they've seen, 
      Bm            A                             E
  Ahh them mediocre bad guys can really bring you down,
Bm               A                      E
   They can't be defeated and you know, never going to come around,


Chorus 3x
            Bm
And now you beat me up and break me down,
D
Hoping I don't come around,
A                               (last mesure of intro)
Kick me when I'm on the ground,
Bm
Beat me up, break me down,
D
Hoping I don't come around,
A                               (last mesure of intro)
Kick me when I'm on the ground,



Outro x3
|------------------------------------------------|
|------------------------------------------------|
|------------------------------------------------|
|------------------------------------------------|
|----7/9-9-7--5--7/9-9-7---7/9-9-7--------5-7/9-7|
|--7---------------------5----------3-5/7--------|
comments
print report bad tab
1 comment total.
0 reply
tyfitz2013 wrote on April 28 2015, 11:09 pm

Great tab, but I tweaked this from your intro:
e|----------------------------------------------------------
B|----------------------------------------------------------
G|----------------------------------------------------------
D|----------------------------------------------------------
A|-------7/9-7-5---7/9-7-5---7/9-7-5---7/9-7-5--------5/7/9-
E|-5-7-----------7----------5---------3--------3-5/7--------

I want to post or [tab]
guest
You may want to rate the tab now too:
select rating
Please do not post tabs as comments. Select "correction" instead!