Oops, an error
Loading. Please wait.

Middle Man Bass Tab

version 1
version 1

Whole song

Interactive

6,962 views 1 this week
3 commentsread comments
1 2 3 4 5
accurate
x 6
add to favorites
launch autoscroll
font size
0
reset
guitar tuner
Tab Pro tools
  • play this tab
  • loop segment
  • change instrument
  • show fretboard
  • metronome
×
Best way to learn
"Middle Man"
Autoscroll
slow
fast
+/-
esc
set tempo
stop
Song: Middleman
Artist: Jack Johnson
Album: Brushfire Fairytales
Tabbed By: ADRA (d_abernathy20@hotmail.com)


*= let ring
^= lift
\= slide down


Verse:
G|--------------------------|
D|--------9---7*-77---------|
A|--7*-77---7-------5^-6^---|
E|--------------------------|

Pre Chorus:
G|-------------------------------------------------|
D|---------9---7*-77-------9*-99---9---------------|
A|--7*-77---7--------5^-6^-------9---9*-9-8^8*-8---|
E|-------------------------------------------------|

Chorus:
G|--------------------------|
D|--------------7*-7--------|
A|--7*-7-555*-5------555*-5-|
E|--------------------------|

Pro Chorus:
G|------------------------------------------------------|
D|--------------7*-7--------9*-99-9-9-------------------|
A|--7*-7-555*-5------555*-5-----------9^9*-9-8^8*-8-777-|
E|------------------------------------------------------|

Verse Variation#1:
G|---------------------------------------|
D|--------9---7*-77-------------9---7^7^-|
A|--7*-77---7-------5^-6^-7*-77---7------|
E|---------------------------------------|

Outro:
G|----------------------|
D|--6^6^-5^5^-5---------|
A|--------------5-6-7\1-|
E|----------------------|


Order:

Verse: x8
Pre Chorus: x1
Chorus: x3
Pro Chorus: x1
Verse: x5
Pre Chorus: x1
Chorus: x5
Pro Chorus: x1
Verse: x2
Verse Variation#1: x4
Outro: x1

This is my first tab ever, but I am almost 100% sure that it is correct. 
Just listen to the song and you will pick up the rhythm(CD version). If 
you have any questions or comments, please e-mail me. I am interested 
in knowing what you think.
comments
print report bad tab
3 comments total.
0 reply
mitchellchasefl wrote on February 22 2016, 11:47 am

the main riff should go
G|--------------------------|
D|--------9---7*-77---------|
A|--7*-77---7-------4^-5^---|
E|--------------------------|

0 reply
mitchellchasefl wrote on February 22 2016, 11:50 am, edited at 11:52 am

and the end of the pre-chorus should goG|----------------------------|D|10*-1010---10-7*-65---------|A|--------10-----------5-6----|E|----------------------------|

0 reply
mitchellchasefl wrote on February 22 2016, 11:52 am

G|----------------------------|
D|10*-1010---10-7*-65---------|
A|--------10-----------5-6----|
E|----------------------------|

I want to post or [tab]
guest
You may want to rate the tab now too:
select rating
Please do not post tabs as comments. Select "correction" instead!