Oops, an error
Loading. Please wait.

Middle Man Chords

version 1
version 1

Whole song

  • This chord chart version includes a bass line interlude and complete outro tab.

Interactive

109 views 48 this week
no commentswrite comment
1 2 3 4 5
3 more votes to show rating
add to favorites
launch autoscroll
font size
0
reset
transpose
0
reset
display chords
guitar tuner
Autoscroll
slow
fast
+/-
esc
set tempo
stop
Author
Difficulty
Tuning
novice
E A D G B E
About this tab version
This chord chart version includes a bass line interlude and complete outro tab. Was this info helpful? Yes No
Strumming
There is no strumming pattern for this song yet. and get +5 IQ
Note: Use bar chords for all chords except Em*

[Intro] (x2)
Em   A   

[Verse]
Em
Well he's not necessarily trying to say that he minds it
    A
But someone plays evil tricks on that kid
Em
Well he's not necessarily trying to say god can't be trusted
    A
But someone plays evil tricks on that kid
Em
As certain situations scream for deviations
    A
But somehow we always get stuck in the middle
   Em
Of this and that and then he should try less
A
Every time he's rejected then he loses affection

[Chorus]
C
But don't we all, don't we just got to give a little time
A                          D                     Em     D
Maybe give a friend a call instead of making him confused
A               D                Em  D
What a terrible thing for you to do-ooo
A             D                Em    D
What an awful thing for you to say-eee
A              D                 A   G  F# F Em*
What a terrible thing for you to relay

[Interlude]
e|---------------------------------------------------------------------------|
B|---------------------------------------------------------------------------|
G|---------------------------------------------------------------------------|  
D|---------------------------------------------------------------------------|
A|-------------------------5-6-------------------------5-6-------------------|
E|-0---0-0--7--0--5---5-5------0---0-0--7--0--5---5-5------------------------|

[Verse]
Em
Well I know some people's they got a little less than nothing
      A
Never still find some to spare
Em
And other people got more than they could use
A
But they don't share
Em
And some people got problems man
         A
They got awful complications
Em
Other people got perfect situations
A
With no provocation

[Chorus] 
C
But don't we all, don't we just got to give a little time
A                          D                     Em     D
Maybe give a friend a call instead of making him confused
A               D                Em  D
What a terrible thing for you to do-ooo
A             D                Em    D
What an awful thing for you to say-eee
A               D
What a terrible thing for you
Em     D
Confused
A               D                Em  D
What a terrible thing for you to do-ooo
A             D                Em    D
What an awful thing for you to say-eee
A              D                 A   G  F# F Em
What a terrible thing for you to relay

[Interlude]
e|---------------------------------------------------------------------------|
B|---------------------------------------------------------------------------|
G|---------------------------------------------------------------------------|  
D|---------------------------------------------------------------------------|
A|-------------------------5-6-------------------------5-6-------------------|
E|-0---0-0--7--0--5---5-5------0---0-0--7--0--5---5-5------------------------|

[Outro]
e|---------------------------------------------------------------------------|
B|---------------------------------------------------------------------------|
G|---------------------------------------------------------------------------|
D|--------------------------------7--7-5-7-5---5--7--5-7-5-------------------|
A|-5-7--7-5-7-5---5--7--5-7-5---5------------7-------------7-5-7--7-5-7-5---5|
E|--------------7-------------7-------------------------------------------7--|

e|-----------------------------|
B|-----------------------------|
G|-----------------------------|  (x3)
D|---------------7--7----------|
A|--7--5-7-5---5---------------|
E|-----------7-----------------|

e|---------------------------------------------------------------------------|
B|---------------------------------------------------------------------------|
G|---------------------------------------------------------------------------|
D|--------------------------------7--7-5-7-5---5--7--5-7-5-------------------|
A|-5-7--7-5-7-5---5--7--5-7-5---5------------7-------------7-5-7--7-5-7-5---5|
E|--------------7-------------7-------------------------------------------7--|

e|---------------------------------------------------------------------------|
B|---------------------------------------------------------------------------|
G|---------------------------------------------------------------------------|  
D|---------------7--7----5--7--7---------------------------------------------|
A|--7--5-7-5---5-------7----------5-5--6--7\---------------------------------|
E|-----------7---------------------------------------------------------------|


************************************

| \   Slide down

************************************
Suggest correction
Give kudos to tab author, rate the tab!
1 2 3 4 5
comments
print report bad tab
guest
You may want to rate the tab now too:
select rating
Wanna post a correction for this tab? Suggest correction