Oops, an error
Loading. Please wait.

Moonshine Tab

version 1
version 1

Whole song

Interactive

40,655 views 39 this week
4 commentsread comments
1 2 3 4 5
accurate
x 15
add to favorites
launch autoscroll
font size
0
reset
how to read this tab
guitar tuner
Tab Pro tools
  • play this tab
  • loop segment
  • change instrument
  • show fretboard
  • metronome
×
Best way to learn
"Moonshine"
Autoscroll
slow
fast
+/-
esc
set tempo
stop
Moonshine by Jack Johnson from Thicker Than Water


Intro Chords (behind the talking [the picking is only on the first bar]):

e|--0---0-0h2p0---0-------4--4--5--4--2--|
B|--0-----------0------0--5--4--5--4--2--|
G|--1------------------2--4--5--6--4--2--|
D|--2------------------1--6--6--7--4--2--|
A|--2------------------2--4--6--7--6--4--|
E|--0------------------------4--5--4--2--|


Harmony played over the chords:

e|-----------------------------------------------------|
B|-----------------------------------------------------|
G|--13--13\11--11\9--9\8--8\6--6/8--8/9--9/11--11/13---|
D|-----------------------------------------------------|
A|--11--11\9---9\7---7\6--6\4--4/6--6/7--7/9---9/11----|
E|-----------------------------------------------------|


Solo:

e|-----------------------------------------------------------------------9-12-9------------|
B|------------------------------------------------------------------------------12-9-7/5/7-|
G|---------------------------------------9/13--9h11p9--9-----------------------------------|
D|-------99--99h11p9---9--9h11-9h11------------------11----11-9h11p9-----------------------|
A|--9h11-------------11----------------------------------------------11-9------------------|
E|-----------------------------------------------------------------------------------------|

e|-12/999/77/999/121212/999/777/999/121212/14|
B|-12/999/77/999/121212/999/777/999/121212/14|
G|-------------------------------------------|
D|-------------------------------------------|
A|-------------------------------------------|
E|-------------------------------------------|

e|----------------------------------------------|
B|-9h12p9---------------------------------------|
G|----------11-9h11p9---------------------------|
D|--------------------11-9h11p9--9--------------|
A|-----------------------------11--11-9---------|
E|------------------------------------12-999-12-|

e|------------------------------9-----------------------------------------------------------------|
B|-----------------------------9--12-9-9b-9-------------------------------------------------------|
G|--------9-------9-11b-11-9--9-------------11-9----9---9----9----9----9----9-11-13b-11-9---------|
D|----9-11-11-9-11----------11-------------------11-9h11-9h11-9h11-9h11-9h11--------------11-9----|
A|-11---------------------------------------------------------------------------------------------|
E|------------------------------------------------------------------------------------------------|

e|-12-9-----9/7/12-9/7/12-9/7/12-9/12-9-|
B|-----12-9-9/7/12-9/7/12-9/7/12-9/12-9-|
G|--------------------------------------|
D|--------------------------------------|
A|--------------------------------------|
E|--------------------------------------|

think the solo is right (there maybe a few odd bits with more repititions n' stuff)

any corrections?...  piss off ;-P
WILKO
comments
print report bad tab
4 comments total. Showing first comments.
+1 reply
Jeson wrote on November 25 2008, 08:48 pm

baha! great tab amigo. sounds right in my ear, but i'm half deaf so what do I know?

+2 reply
Aleloco wrote on January 4 2013, 08:46 am

Good tab but there are 2 parts missing after the intro and before the harmony

0 reply
zzepeda44 wrote on August 12 2013, 07:43 pm

so sick man, thanks a lot!

I want to post or [tab]
guest
You may want to rate the tab now too:
select rating
Please do not post tabs as comments. Select "correction" instead!