Oops, an error
Loading. Please wait.

Mud Football Tab

version 3
version 3

Whole song

Interactive

1,655 views 6 this week
5 commentsread comments
1 2 3 4 5
please rate
add to favorites
launch autoscroll
font size
0
reset
how to read this tab
guitar tuner
Autoscroll
slow
fast
+/-
esc
set tempo
stop
Help us to improve Ultimate-Guitar.com Take our survey!
×
Contributor
Difficulty
jhm5005 71
novice
-------------------------------------------------------------------------------
                             SONG NAME - Band Name
-------------------------------------------------------------------------------
this is my first tab, it sounds pretty good to me when i play it, i think
it is the correct way to play it

Tuning: standard yo~

intro
d=down strum
u=up strum
x=mute strum

--diff strum pattern than the rest
dxxuxxdxxuxxd (pause) dxxuxxdxxuxxd -- switch chords

e|--3--------------5---------------------------------------------------------|
B|--3--------------3---------------------------------------------------------|
G|--4--------------5---------------------------------------------------------|
D|--5--------------4---------------------------------------------------------|
A|--5--------------x---------------------------------------------------------|
E|--3--------------x---------------------------------------------------------|


main verse

strum pattern is typical jack johnson strum,
down-up-click-up-up-up-click (also throw in a little mute strumming, sounds better.. you 
figure it out)

e|--3--3-c---3-3-3--c-----------------------------------------------------------|
B|--3--3-l---3-3-3--l-----------------------------------------------------------|
G|--4--4-i---4-4-4--i----x2-----------------------------------------------------|
D|--5--5-c---5-5-5--c-----------------------------------------------------------|
A|--5--5-k---5-5-5--k-----------------------------------------------------------|
E|--3--3-----3-3-3--------------------------------------------------------------|

e|--5--5-c---5-5-5--c----------------------------------------------------------|
B|--3--3-l---3-3-3--l----------------------------------------------------------|
G|--5--5-i---5-5-5--i----x2----------------------------------------------------|
D|--4--4-c---4-4-4--c----------------------------------------------------------|
A|--x--x-k---x-x-x--k----------------------------------------------------------|
E|--x--x-----x-x-x-------------------------------------------------------------|

than transition to

e|--7--7--c----5-5-5--c-----8--8---c--8---8---8-----c-------------------------------|
B|--8--8--l----5-5-5--l-----8--8---l--8---8---8-----l-------------------------------|
G|--9--9--i----6-6-6--i-----9--9---i--9---9---9-----i-------------------------------|
D|--9--9--c----7-7-7--c-----10-10--c--10--10--10----c-------------------------------|
A|--7--7--k----7-7-7--k-----10-10--k--10--10--10----k-------------------------------|
E|--7--7-------5-5-5--------8--8------8---8---8-------------------------------------|

e|---3-3--c---3-3-3--c----------------------------------------------------------|
B|---3-3--l---3-3-3--l----------------------------------------------------------|
G|---4-4--i---5-5-5--i---x2-----------------------------------------------------|
D|---5-5--c---4-4-4--c----------------------------------------------------------|
A|---5-5--k---5-5-5--k----------------------------------------------------------|
E|---3-3------3-3-3-------------------------------------------------------------|


after this go back to intro but during the song, it is shorter, i believe you only go 
it once but than again i am not listening to the song right now either

enjoy!
comments
We did not receive enough feedback on this tab! Please rate:
print report bad tab
1 2 3 4 5
5 comments total. Showing first comments.
0 reply
jhm5005 71 wrote on April 4 2007, 11:07 am

thanks in part to the true puerto rican hero -- gabe

0 reply
jhm5005 71 wrote on April 7 2007, 11:42 pm

The section at the very end where you strum G (355433) and then G*(353533) i have marked as playing it twice, you actually play it four times. My fault~

there is also a little change up at the end but its not hard to get just listen for it

0 reply
jhm5005 71 wrote on April 7 2007, 11:43 pm

whoops -- i meant G*(354533)

I want to post or [tab]
guest
You may want to rate the tab now too:
select rating
Please do not post tabs as comments. Select "correction" instead!