Oops, an error
Loading. Please wait.

My Little Girl Tab

version 1
version 1

Whole song

Interactive

75,118 views 36 this week
13 commentsread comments
1 2 3 4 5
x 20
add to favorites
launch autoscroll
font size
0
reset
how to read this tab
guitar tuner
Autoscroll
slow
fast
+/-
esc
set tempo
stop
Author
Difficulty
intermediate
[Verse] (x2)
e|----------------------------------------------------------------------------|
B|----------------------------------------------------------------------------|
G|---7----------9---------------------------6---------------------------------|
D|---5----------7---------------------------7---------------------------------|
A|---7----------9----------------9----------7---------------------------------|
E|------x--7--x---x--10--x---7-x---x---5--x----x------------------------------|

[Pre-Chorus 1]
Hey little girl look what you've done
e|-------------------------------------------------------------------------|
B|-------------------8-----------------------------------------------------|
G|---------4---------7-----------------------------------------------------|
D|---------5---------9-----------------------------------------------------|
A|---------5---------7-----------------------------------------------------|
E|-----3-x----x---------x---7----------------------------------------------|

[Chorus]
you’ve stole my heart and made it your own
you stole my heart and made it your own
e|-------------------------------------------------------------------------|
B|-------------------------------------------3-----------------------------|
G|---------------------------------------------4---------------------------| (x2)
D|-----------------------------------------5-------------------------------|
A|---------9---------------7-------------5---------------------------------|
E|------7-----x--7------5-----x---5--- 3----------x---3--------------------|

[Pre-Chorus 2]  
( Pre Chorus 2 + Pre Chorus 1 )
how can I look you in the eyes and tell you such big lies
the best I can do is try to show you how to love with no fear my little girl
e|----------------------------------------------------------------------------|
B|----------------8-----------------------------------------------------------|
G|---------4------7-----------------7----------6------------------------------|
D|---------5------9-----------------9----------7------------------------------|
A|---------5------7-----------------9----------7------------------------------|
E|-----3-x----x------x--7--x--7--x-----x--5--x----x---------------------------|

e|-------------------------------------------------------------------------|
B|-------------------8-----------------------------------------------------|
G|---------4---------7-----------------------------------------------------|
D|---------5---------9-----------------------------------------------------|
A|---------5---------7-----------------------------------------------------|
E|-----3-x----x---------x---7----------------------------------------------|


************************************

| x  Dead note

************************************
Suggest correction
comments
print report bad tab
13 comments total. Showing first comments.
+2 reply
KaeliChae 10 Jun 04, 2010 08:25 AM

Good job! This is awesome.

+1 reply
Alicyn Dyer 10 Jun 04, 2010 10:12 AM

Hey! This is GREAT, love the song! I can't wait to use your TAB to learn it! Thanks so much! :) Keep up the good work!

+2 reply
jacecrawford 121 Jun 04, 2010 10:36 AM

This is some of the solo at the end

e|-----------------------------------------------------------
B|-------------------------------------------------------7---
G|-----------7------9-----7-----------------7----9-----------
D|------9------------------------------9---------------------
A|--7------7-----7-------7----------7-----7----7------7------
E|-----------------------------------------------------------

guest
You may want to rate the tab now too:
select rating
Wanna post a correction for this tab? Suggest correction