Oops, an error
Loading. Please wait.

My Little Girl Tab

version 1
version 1

Whole song

Interactive

73,318 views 63 this week
13 commentsread comments
1 2 3 4 5
accurate
x 19
add to favorites
launch autoscroll
font size
0
reset
how to read this tab
guitar tuner
Autoscroll
slow
fast
+/-
esc
set tempo
stop
Help us to improve Ultimate-Guitar.com Take our survey!
×
Author
Difficulty
intermediate
-------------------------------------------------------------------------------
                           My Little Girl - Jack Johnson
-----------------------------------------------------------------------------

This is 99.999% correct i got this from AOL sessions on youtube

No Capo

Order of song :


Intro --- Verse 1 --- Pre Chorus 1 -- Chorus --- Verse 2 ---
Pre Chorus 2 --- Pre Chorus 1 --- Chorus ---
( instrumental same as verse ) - Chorus

Tuning: Standard

Intro and Verse

(verse1)Hey little girl   .. .  . .  . . . . . good people will say
(verse2) Hey little girl . .. . . . .... . .. . . back on the years

e|-------------------------------------------------Repeat 2X for the intro----|
B|-------------------------------------------------Repeat 2X for the Verse----|
G|---7----------9---------------------------6---------------------------------|
D|---5----------7---------------------------7---------------------------------|
A|---7----------9----------------9----------7---------------------------------|
E|------X--7--X---X--10--X---7-X---X---5--X----X------------------------------|


Pre Chorus 1

Hey little girl look what you've done
e|-------------------------------------------------------------------------|
B|-------------------8-----------------------------------------------------|
G|---------4---------7---------------------ONE TIME------------------------|
D|---------5---------9-----------------------------------------------------|
A|---------5---------7-----------------------------------------------------|
E|-----3-X----X---------X---7----------------------------------------------|

Chorus

you’ve stole my heart and made it your own
you stole my heart and made it your own

e|-------------------------------------------------------------------------|
B|-------------------------------------------3-----------------------------|
G|---------------------------------------------4-------------REPEAT--------|
D|-----------------------------------------5-------------------------------|
A|---------9---------------7-------------5---------------------------------|
E|------7-----X--7------5-----X---5--- 3----------X---3--------------------|

Pre Chorus 2  ( Pre Chorus 2 + Pre Chorus 1 )

how can I look you in the eyes and tell you such big lies
the best I can do is try to show you how to love with no fear my little girl

e|----------------------------------------------------------------------------|
B|----------------8-----------------------------------------------------------|
G|---------4------7-----------------7----------6------------------------------|
D|---------5------9-----------------9----------7------------------------------|
A|---------5------7-----------------9----------7------------------------------|
E|-----3-X----X------X--7--X--7--X-----X--5--X----X---------------------------|

e|-------------------------------------------------------------------------|
B|-------------------8-----------------------------------------------------|
G|---------4---------7-----------------------------------------------------|
D|---------5---------9-----------------------------------------------------|
A|---------5---------7-----------------------------------------------------|
E|-----3-X----X---------X---7----------------------------------------------|

Lyrics:

Hey little girl you might not know this song
This is not the kinda song that you could sing along to, but
hey little girl Maybe someday
least thats what all the good people will say
Hey little girl look what you done

youve stole my heart and made it your own
you stole my heart and made it your own


hey little girl black and white and right and wrong
only live inside a song, I will sing to you
you don’t ever have to feel lonely
you will never lose any tears
you don’t have to feel any sorrow
when you look back on the years

how can I look you in the eyes and tell you such big lies
the best I can do is try to show you how to love with no fear
my little girl

you’ve stole my heart and made it your own
you stole my heart and made it your own

you’ve stole my heart and made it your own
you stole my heart and made it your own

www.youtube.com/jacecrawford
Suggest correction
comments
print report bad tab
13 comments total. Showing first comments.
+2 reply
KaeliChae 10 wrote on June 4 2010, 12:25 pm

Good job! This is awesome.

+1 reply
Alicyn Dyer 10 wrote on June 4 2010, 02:12 pm

Hey! This is GREAT, love the song! I can't wait to use your TAB to learn it! Thanks so much! :) Keep up the good work!

+2 reply
jacecrawford 121 wrote on June 4 2010, 02:36 pm

This is some of the solo at the end

e|-----------------------------------------------------------
B|-------------------------------------------------------7---
G|-----------7------9-----7-----------------7----9-----------
D|------9------------------------------9---------------------
A|--7------7-----7-------7----------7-----7----7------7------
E|-----------------------------------------------------------

guest
You may want to rate the tab now too:
select rating
Please do not post tabs as comments. Select "correction" instead!