Oops, an error
Loading. Please wait.

My Little Girl tab

version 5
version 5

Whole song

Interactive

346 views 1 this week
no commentswrite comment
1 2 3 4 5
3 more votes to show rating
add to favorites
×
Save as Personal and add changes to this tab that will be seen only by you. Learn more ›
×
You can save this tab as Personal to edit and correct it or add notes. All changes will be seen only by you. Learn more »
launch autoscroll
font size
0
reset
how to read this tab
guitar tuner
edit
Autoscroll
slow
fast
+/-
esc
set tempo
stop
Author
Difficulty
mix of jacecrawford's and ryan's version, which works best.

-------------------------------------------------------------------------------
                           My Little Girl - Jack Johnson
---------------------------------------------------------------------------

Tuning: Standard

Intro and Verse

e|-------------------------------------------------Repeat 2X for the intro----|
B|-------------------------------------------------Repeat 2X for the Verse----|
G|---7----------9---------------------------6---------------------------------|
D|---5----------7---------------------------7---------------------------------|
A|---7----------9----------------9----------7---------------------------------|
E|------X--7--X---X--10--X---7-X---X---5--X----X------------------------------|


Pre Chorus 1

Hey little girl look what you've done
e|-------------------------------------------------------------------------|
B|-------------------8-----------------------------------------------------|
G|---------4---------7---------------------ONE TIME------------------------|
D|---------5---------9-----------------------------------------------------|
A|---------5---------7-----------------------------------------------------|
E|-----3-X----X---------X---7----------------------------------------------|

Chorus

you’ve stole my heart and made it your own
you stole my heart and made it your own

e|-------------------------------------------------------------------------|
B|-------------------------------------------3-----------------------------|
G|-----------------------------------------------------------REPEAT--------|
D|-----------------------------------------5-------------------------------|
A|---------9---------------7-------------5---------------------------------|
E|------7-----X--7------5-----X---5--- 3----------X---3--------------------|

(verse2) Hey little girl . .. . . . .... . .. . . back on the years

e|-------------------------------------------------Repeat 2X for the intro----|
B|-------------------------------------------------Repeat 2X for the Verse----|
G|---7----------9---------------------------6---------------------------------|
D|---5----------7---------------------------7---------------------------------|
A|---7----------9----------------9----------7---------------------------------|
E|------X--7--X---X--10--X---7-X---X---5--X----X------------------------------|


Pre Chorus 2  ( Pre Chorus 2 + Pre Chorus 1 )

how can I look you in the eyes and tell you such big lies
the best I can do is try to show you how to love with no fear my little girl

e|----------------------------------------------------------------------------|
B|----------------8-----------------------------------------------------------|
G|---------4------7-----------------7----------6------------------------------|
D|---------5------9-----------------9----------7------------------------------|
A|---------5------7-----------------9----------7------------------------------|
E|-----3-X----X------X--7--X--7--X-----X--5--X----X---------------------------|

e|-------------------------------------------------------------------------|
B|-------------------8-----------------------------------------------------|
G|---------4---------7-----------------------------------------------------|
D|---------5---------9-----------------------------------------------------|
A|---------5---------7-----------------------------------------------------|
E|-----3-X----X---------X---7----------------------------------------------|

Chorus

you’ve stole my heart and made it your own
you stole my heart and made it your own

e|-------------------------------------------------------------------------|
B|-------------------------------------------3-----------------------------|
G|---------------------------------------------4-------------REPEAT--------|
D|-----------------------------------------5-------------------------------|
A|---------9---------------7-------------5---------------------------------|
E|------7-----X--7------5-----X---5--- 3----------X---3--------------------|

Solo: (Played over verse chords)
e|---------------------------------------------------------------------|x2
B|-----------------------------------------------------------9/10--10--|
G|-----4---7---9---7----4---7---9---11------4---7---9---7--------------|
D|---x---x---x---x----x---x---x---x-------x---x---x---x----------------| 
A|---------------------------------------------------------------------|
E|---------------------------------------------------------------------|

Got to get the harmony going here to get that smooth sound
(Played over chorus chords)

e|------------------------------ |------------------|x2----|
B|------------------------------ |------------------|  ----|
G|-----14--11-14--11----9--7--9- |-11-----9--7--9---|  ----|
D|-9---------------------------- |-----------------9|  s12-|
A|-9---12--9--12--9-----7--5--7- |-9------7--5--7---|  ----|
E|------------------------------ |-----------------7|  s10-|


            
            
Suggest correction
Creating personal tab
Creating personal tab
You can edit any tab online and save it as your Personal.

You can edit, replace or remove any tab part or add personal notes – all changes will be seen only by you.

Personal tabs can be accessed anytime from any device, even offline.
Learn more »
Give kudos to tab author, rate the tab!
1 2 3 4 5
comments
print report bad tab
guest
You may want to rate the tab now too:
select rating
Wanna post a correction for this tab? Suggest correction