Oops, an error
Loading. Please wait.

Never Know Bass Tab

8,214 views 3 this week
no commentswrite comment
1 2 3 4 5
accurate
x 4
add to favorites
launch autoscroll
font size
0
reset
guitar tuner
Autoscroll
slow
fast
+/-
esc
set tempo
stop
Help us to improve Ultimate-Guitar.com Take our survey!
×
Author
Difficulty
novice
Never Know
<<<<<<<= crescendo

Verse
G----------------------------------------|
D--------6-4---4-6--------4-2-2-1-1------|
A-4---4-------------2---2----------------|   repeat
E----------------------------------------|


Pre-Chorus
G-----------------------------|
D-------4---------------------|
A-0--------2-2-2-2-2-2-2------|
E-----------------------------|
                         < < < < < <
Chorus
G---------------------|
D------4-4------2-2---|
A-4-4------2-2--------|
E --------------------|

There’s no bass after the chorus Jack does a little solo then
back to the verse

_terp
Suggest correction
comments
print report bad tab
guest
You may want to rate the tab now too:
select rating
Wanna post a correction for this tab? Suggest correction