Oops, an error
Loading. Please wait.

No Other Way tab

version 3
version 3

Interactive

7,862 views 3 this week
no commentswrite comment
1 2 3 4 5
1 last vote to show rating
add to favorites
×
Save as Personal and add changes to this tab that will be seen only by you. Learn more ›
×
You can save this tab as Personal to edit and correct it or add notes. All changes will be seen only by you. Learn more »
launch autoscroll
font size
0
reset
how to read this tab
guitar tuner
edit
Autoscroll
slow
fast
+/-
esc
set tempo
stop
Author
Difficulty
No other way
Jack Johnson
In between dreams

/=slide up
\=slide down
+=harmonic
h=hammer on
p=pull off
R=let it ring

Tuning=normal

Intro
e-----------------------------------|
b---6-----6-----6-------------------|
g---6h-8--6h-8--6--------6----------|
d---6-----6-----6----8--------------|       (x4)
a-----------------------------------|
E-----------------------------------|

Intro 2
e--------------------------------|
b---------6----------------------|
g--5/7-------7----------5--------|
d-----------------5/7-----7--3-3-|        (x2)
a--------------------------------|
E--------------------------------|

on the third time play
e--------------------------------|
b--------------------------------|
g---5/7--3R---------5------------|
d-------------5/7------7----3-3--|
a--------------------------------|
E--------------------------------|

and on the fourth time play like in intro 2

verse
e-------------------------------------------------------------|
b-------------------------------------------------------------|
g-------------------------------------------------------------|
d----------7------7------7--------------8------8------8-------|
a----8-------8------8-----8--------8------8------8------8-----|
E--8---8-------8------8----8-----6---6------6------6------6---|

e-------------------------------------------------------------|
b-------------------------------------------------------------|
g-------------------------------------------------------------|
d---------5------5------5--------------8------8------8--------|     (x3)
a----5------5------5------5--------8------8------8------8-----|
E--3---3------3------3------3----6---6------6------6------6---|

Chorus
e---------------------------------------|
b---------------------------------------|
g---------------------------------------|
d---------7------------7----------8-----|             (x3)
a----8------8---8--------7----------8---|
E--8---8------8-----5------5---6------6-|


Bridge
e-------------------------------------|
b-------------------------------------|
g-----10-------12--------14--------15-|
d-------------------------------------|
a--8------10--------12--------13------|
E-------------------------------------|

e-------------------------------------|
b-------------------------------------|
g-------15------14-------12------10---|
d-------15------14-------12------10---|    x1) im not sure it's perfect but
a---13------12-------10-------8-------|     that is what it sounds like
E-------------------------------------|

when it comes back in with the intro it's this
e--------------------------------|
b--------------------------------|
g---5/7--3R---------5------------|
d-------------5/7------7----3-3--|
a--------------------------------|
E--------------------------------|

then...
e--------------------------------|
b---------6----------------------|
g--5/7-------7----------5--------|
d-----------------5/7-----7--3-3-|
a--------------------------------|
E--------------------------------|

then...
e--------------------------------|
b--------8\6---------------------|
g--5/7--------------5------------|
d--------------5/7----7----3-3---|
a--------------------------------|
E--------------------------------|

then finally...

e--------------------------------|
b---------6----------------------|
g--5/7-------7----------5--------|
d-----------------5/7-----7--3-3-|
a--------------------------------|
E--------------------------------|

now play the verse x2

then play chorus x3

then play the bridge

Outro

e--------------------------------|
b--------------------------------|
g---5/7--3R---------5------------|
d-------------5/7------7----3-3--|
a--------------------------------|
E--------------------------------|


then...
e--------------------------------|
b---------6----------------------|
g--5/7-------7----------5--------|
d-----------------5/7-----7--3-3-|
a--------------------------------|
E--------------------------------|

then...
e--------------------------------|
b--------------------------------|
g---5/7--3R---------5------------|
d-------------5/7------7----3-3--|
a--------------------------------|
E--------------------------------|

and finally...
e-------------------------------------|
b---------6---------------------------|
g--5/7-------7----------5-------------|
d-----------------5/7-----7--3-3----7-|
a----------------------------------8--|
E-------------------------------------|

Tabbed by takamine2

            
            
Suggest correction
Creating personal tab
Creating personal tab
You can edit any tab online and save it as your Personal.

You can edit, replace or remove any tab part or add personal notes – all changes will be seen only by you.

Personal tabs can be accessed anytime from any device, even offline.
Learn more »
Give kudos to tab author, rate the tab!
1 2 3 4 5
comments
print report bad tab
guest
You may want to rate the tab now too:
select rating
Wanna post a correction for this tab? Suggest correction