Oops, an error
Loading. Please wait.

No Other Way tab

version 4
version 4

Interactive

3,191 views 3 this week
1 commentread comment
1 2 3 4 5
1 last vote to show rating
add to favorites
×
Save as Personal and add changes to this tab that will be seen only by you. Learn more ›
×
You can save this tab as Personal to edit and correct it or add notes. All changes will be seen only by you. Learn more »
launch autoscroll
font size
0
reset
how to read this tab
guitar tuner
edit
Autoscroll
slow
fast
+/-
esc
set tempo
stop
Difficulty
intermediate
Intro
e|--0h2--0h2--0-----0--|--0h2--0h2--0-----------2--|---|
b|---------------2-----|-------------------0h2-----|---|
g|---------------------|----------------2----------|---|
d|--2----2----2--------|--2----2----2--------------|---|
a|--—------------------|---------------------------|---|
e|---------------------|---------------------------|---|

e|---|-0h2--0h2--0-----0--|--0h2--0h2--0-----------|
b|---|--------------2-----|---------------2-----0--|
g|---|--------------------|------------------2-----|
d|---|-2----2----2--------|--2----2----2-----------|
a|---|-—------------------|------------------------|
e|---|--------------------|------------------------|

_______________________________________________________________________

Riff 1 (4 times total 3rd different)
 X2
e|-----------------------------------------------|---|
b|----------5------------------------------------|---|
g|-----4/6-----6----------------4----------------|---|
d|-------------------2-----4/6-----6\2-----2-----|---|
a|--—--------------------------------------------|---|
e|--0-------------0-----0---------------0-----0--|---|
    *                                      *Only on the first time
 X1    (note the one note difference!)
e|---|-----------------------------------------------|---|
b|---|-----------------------------------------------|---|
g|---|-----4/6-----6----------------4----------------|---|
d|---|----------7--------2-----4/6-----6\2-----2-----|---|
a|---|--—--------------------------------------------|---|
e|---|--0-------------0-----0---------------0-----0--|---|
 X1
e|---|-----------------------------------------------|
b|---|----------5------------------------------------|
g|---|-----4/6-----6----------------4----------------|
d|---|-------------------2-----4/6-----6\2-----2-----|
a|---|--—--------------------------------------------|
e|---|--0-------------0-----0---------------0-----0--|

_______________________________________________________________________

Verse
e|-----------------------------|-----------------------------|---|
b|-----------------------------|-----------------------------|---|
g|------1-----1----------------|--------2-----2-----2--------|---|
d|--2-----2-----2---6\4-2---2--|----2-----2-----2-----2---2--|---|
a|--—-2-----2-----2-------2----|--0---0-----0-----0-----0----|---|
e|-----------------------------|-----------------------------|---|

e|---|-----------------------------|-----------------------------|
b|---|-----------------------------|-----------------------------|
g|---|-----------------------------|--------2-----2-----2--------|
d|---|--------4-----4-----4--------|----2-----2-----2-----2---2--|
a|---|--—-4-----4-----4-----4---4--|--0---0-----0-----0-----0----|
e|---|--2---2-----2-----2-----2----|-----------------------------|

______________________________________________________________________

Chorus
 x3
e|---------------------------------|---|
b|---------------------------------|---|
g|--------1---------4/2---2/1------|---|
d|----2-----2---2-------6-----2----|---|
a|--—---2-----2---0-------------2--|---|
e|--0------------------------------|---|
 x1
e|---|-----------------------------|-----------------------------|
b|---|-----------------------------|-----------------------------|
g|---|-----------------------------|--------2-----2-----2--------|
d|---|--------4-----4-----4--------|----2-----2-----2-----2---2--|
a|---|--—-4-----4-----4-----4---4--|--0---0-----0-----0-----0----|
e|---|--2---2-----2-----2-----2----|-----------------------------|
_____________________________________________________________________

Riff 2 (4 times total 2nd and 3rd different)

e|-----------------------------------------------|---|
b|-----------------------------------------------|---|
g|-----4/6-----6----------------4----------------|---|
d|----------7--------2-----4/6-----6\2-----2-----|---|
a|--—--------------------------------------------|---|
e|--0-------------0-----0---------------0-----0--|---|
    *                                      *Only on the first time

e---|--------------------------------------------|---|
b---|-------5------------------------------------|---|
g---|--4/6-----6----------------4----------------|---|
d---|----------------2-----4/6-----6\2-----2-----|---|
a---|--------------------------------------------|---|
e---|-------------0-----0---------------0-----0--|---|


e---|----------------------------------------------|---|
b---|-------7\5------------------------------------|---|
g---|--4/6-------4----------------4----------------|---|
d---|------------------2-----4/6-----6\2-----2-----|---|
a--—|----------------------------------------------|---|
e---|---------------0-----0---------------0-----0--|---|

e---|-------------------------------------------------|
b---|-------------------------------------------------|
g---|-----4/6-----6----------------4------------------|
d---|----------7--------2-----4/6-----6\2-----2-------|
a---|--—----------------------------------------------|
e---|--0-------------0-----0---------------0-----0----|
_____________________________________________________________________

            
            
Suggest correction
Creating personal tab
Creating personal tab
You can edit any tab online and save it as your Personal.

You can edit, replace or remove any tab part or add personal notes – all changes will be seen only by you.

Personal tabs can be accessed anytime from any device, even offline.
Learn more »
Give kudos to tab author, rate the tab!
1 2 3 4 5
comments
print report bad tab
1 comment total.
0 reply
XxNeurotoxinxX 10 Jul 13, 2012 07:01 AM

None of this sounds right at all.

guest
Wanna post a correction for this tab? Suggest correction