Oops, an error
Loading. Please wait.

No Other Way Tab

version 6
version 6

Intro

Interactive

62,912 views 141 this week
11 commentsread comments
1 2 3 4 5
excellent!
x 27
add to favorites
launch autoscroll
font size
0
reset
how to read this tab
guitar tuner
Tab Pro tools
  • play this tab
  • loop segment
  • change instrument
  • show fretboard
  • metronome
×
Best way to learn
"No Other Way"
Autoscroll
slow
fast
+/-
esc
set tempo
stop
Contributor
Difficulty
Tuning
intermediate
D A D G B E
Jack Johnson – no other way

I think correct because I have played it right along with the song.  I may have made the
a little confusing.  I am sorry, this is my first tab, but if you listen to the song
not that difficult and you can pick out the individual parts and it makes sense and I 
put the order of the parts at the bottom.  Please rate this so others will read it and if
are problems you find please email me so I can fix them.
- Bren Pruitt

stubs_88@yahoo.com

The song is in drop D tuning with a capo on the third fret

Intro
e|-----------------------------------------| x2
B|-3/5--3/5--3--0--3--3/5-3/5--3----------3|
G|------------------------------------0----|
D|-0----0-------------0---0----0----0---0--|
A|-----------------------------------------|
D|-----------------------------------------|


e|--------------------------------------------------------------------|
B|--------------------------------------------------------------------|
G|-------7------------------------------7-----------------------------|
D|---7/9---9-9---------7\4----4-----7/9---9-9-------7\4----4----------|
A|-----------------7/9------5-------------------7/9------5------------|
D|-0--------0--0-------------0-------------0--0-----------0-----------|


e|--------------------------------------------------------------------|
B|--------------------------------------------------------------------|
G|-------0------------------------------7-----------------------------|
D|---7/9---9-9---------7\4----4-----7/9---9-9-------7\4----4--------4-|
A|-----------------7/9------5-------------------7/9------5------5-----|
D|----------0--0-------------0-------------0--0-----------0-------0---|


e|--------------------------------------------------------------------|
B|--------------------------------------------------------------------|
G|--------------------------------------------------------------------|
D|-----4------4\2---0---0-------------5------5--------5-----------/---|
A|--5-----5--------------------5--------5------5--------5-----5---/---|
D|----0-----0---------0------5---5--------5-------5--------5------/---|


e|--------------------------------------------------------------------|
B|--------------------------------------------------------------------|
G|--------------------------------------------------------------------|
D|---------2-------2-------2--------/--------5-------5--------5-------|
A|---2-------2-------2-------2---2--/----5-----5-------5--------5---5-|
D|-2---2-------2-------2-------2----/--5---5-----5-------5--------5---|


Verse x2

   When your mind is a mess so is mine I can’t…
   Too much silence can be misleading…
e|-------------------------------------------| right after the interlude when
B|-------------------------------------------| it comes back to this part
G|-------------------------------------------| do not play the first note.
D|-------4-------4-------4-------------------| listen to the song to see what
A|---5-----5-------5-------5---5-------------| i mean
D|-0---0-----0-------0-------0---------------|


   Sleep cus it hurts when I think, my thoughts are at peace with the plans…
e|--------------------------------------------------------------------|
B|--------------------------------------------------------------------|
G|--------------------------------------------------------------------|
D|--------5-----5-----5----------------2-----2-----2--------\---------|
A|---5------5-----5-----5---5------2-----2-----2-----2---2--\---------|
D|-5---5------5-----5-----5------2---2-----2-----2-----2----\---------|

e|--------------------------------------------------------------------|
B|--------------------------------------------------------------------|
G|--------------------------------------------------------------------|
D|-------5-----5-----5------------------------------------------------|
A|---5-----5-----5-----5---5------------------------------------------|
D|-5---5-----5-----5-----5--------------------------------------------|

chorus

And know that if I, knew all the answers I would not hold them from you
e|--------------------------------------------------------------------|
B|--------------------------------------------------------------------|
G|--------------------------------------------------------------------|  x2
D|-------4--0---0----7/5-0-------0------------------------------------|
A|---5--------0---0----------5----------------------------------------|
D|-0---0-------------------5---5--------------------------------------|

          Cus we told each other, there is no other way
e|--------------------------------------------------------------------|
B|--------------------------------------------------------------------|
G|--------------------------------------------------------------------|
D|-------4--0---0----7/5-0-------/--------2-----2-----2-------/-------|
A|---5--------0---0----------5---/----2-----2-----2-----2---2-/-------|
D|-0---0-------------------5---5-/--2---2-----2-----2-----2---/-------|


e|--------------------------------------------------------------------|
B|--------------------------------------------------------------------|
G|--------------------------------------------------------------------|
D|-------5----5----5--------------------------------------------------|
A|---5-----5----5----5---5--------------------------------------------|
D|-5---5-----5----5----5----------------------------------------------|

  interlude

e|--------------------------------------------------------------------|
B|--------------------------------------------------------------------|
G|-----0---------------------------7----------------------------------|
D|--7/9--9-9-------7/4----4----7/9---9-9------7/4---4-----------------|
A|-------------7/9-----5------------------7/9-----5-------------------|
D|-0------0-0------------0------------0-0----------0------------------|


e|--------------------------------------------------------------------|
B|--------------------------------------------------------------------|
G|------9/7-----------------------------7-----------------------------|
D|-7/9--9/7—-7--7------7/4----4-----7/9---9-9------7/4----------------|
A|-----------------7/9-----5-------------------7/9--------------------|
D|-------------0-0-----------0-------------0-0------------------------|

Outro

e|--------------------------------------------------------------------| x2
B|--------------------------------------------------------------------|
G|-------0--------------------------7---------------------------------|
D|---7/9---9-9------7/4----4----7/9---9-9-------7/4----4--------------|
A|--------------7/9------5------------------7/9------5----------------|
D|-0--------0-0-----------0------------0-0------------0---------------|

* There is a second guitar that plays over the top of the part that says “and if I knew
of the answers I would not hold them from you” but you have to listen to the song to get
but here it is if you wanted it.

Guitar 2
e|-------------------------------------------------------------------|
B|-3-------7------5/3-----3-----7-----5/3----------------------------|
G|-------------------------------------------------------------------|
D|-----7-----5--------4-----7-----5----------------------------------|
A|-------------------------------------------------------------------|
D|-------------------------------------------------------------------|


e|-------------------------------------------------------------------|
B|-----5------7------8-------10--------------------------------------|
G|-------------------------------------------------------------------|
D|-4/5----5/7----7/9----9/11-----12----------------------------------|
A|-------------------------------------------------------------------|
D|-------------------------------------------------------------------|


Order is as follows
-       intro
-       verse
-       chorus (guitar 2 plays on top of this)
-       interlude
-       verse
-       chorus
-       outro
comments
print report bad tab
11 comments total. Showing first comments.
+2 reply
PRIVATEpastry wrote on April 4 2007, 11:47 am

Good tab. I might be wrong, but I think the intro goes like this:

|------------------------------------------|
|-3/5--3/5--3--0--3--3/5--3/5--3--3-----3--| x2
|-------------------------------------0----|
|-0----0-------------0----0---------0------|
|------------------------------------------|
|------------------------------------------|

0 reply
lennyp75 wrote on May 23 2007, 04:05 am

great!!!

0 reply
food1010 wrote on January 9 2008, 09:14 pm

great tab, but it's confusing. i want to be able to sing along

I want to post or [tab]
guest
You may want to rate the tab now too:
select rating
Please do not post tabs as comments. Select "correction" instead!