Oops, an error
Loading. Please wait.

No Other Way Tab

version 8
version 8

Interactive

4,638 views 6 this week
no commentswrite comment
1 2 3 4 5
1 last vote to show rating
add to favorites
launch autoscroll
font size
0
reset
how to read this tab
guitar tuner
Autoscroll
slow
fast
+/-
esc
set tempo
stop
Help us to improve Ultimate-Guitar.com Take our survey!
×
Author
Capo
3rd fret
-------------------------------------------------------------------------------
                             No Other Way - Jack Johnson
-------------------------------------------------------------------------------
Tabbed by:kroc90
Email:sg_nl90@yahoo.co.uk

Tuning:DADGBE capo on the 3rd fret

This is how I play the song took a while to figure out a few parts as unsure of the 
but it sounds good to me.
Lyrics aren't exeact timing but fit into the bars if you know what I mean.
Sorry for the dodgy spacing of notes, done this in a rush.
Please rate

Intro
e|-----------------------------------------|
B|-3h5--3h5--3-----3--3h5-3h5--3--3-----3--|
G|--------------4---------------------4----|
D|-0----0-------------0---0---------0------|
A|-----------------------------------------|
D|-----------------------------------------|

e|-----------------------------------------|
B|-3h5--3h5--3-----3--3h5-3h5--3--3--------|
G|--------------4---------------------0----|
D|-0----0-------------0---0---------0------|
A|-----------------------------------------|
D|-----------------------------------------|


e|-------------------------------------------------------------------------|
B|-------------------------------------------------------------------------|
G|-------7---------------------------------7-------------------------------|
D|---7/9---9--0---------7\4------0-----7/9---9---0-------7\4------0--------|
A|------------------7/9------5-----------------------7/9------5------------|
D|-0--------0---0--------------0----0----------0---0------------0----------|


e|-------------------------------------------------------------------------|
B|-------------------------------------------------------------------------|
G|-------7---------------------------------7-------------------------------|
D|---7/9---9--0---------7\4------0-----7/9---9---0-------7\4------0--------|
A|------------------7/9------5-----------------------7/9------5------------|
D|-0--------0---0--------------0----0----------0---0------------0----------|


e|-----------------------------------------------------------------|
B|-----------------------------------------------------------------|
G|-----------------------------------------------------------------|
D|-----4------4-----------4/2-0--------------5--------------5-----0|
A|--5-----5----------5----------0h2-0----5-----5---5----5-----5----|
D|0---0-----0------0---0---------------5---5-----5----5---5-----0--|


e|-----------------------------------------------------------------|
B|-----------------------------------------------------------------|
G|-----------------------------------------------------------------|
D|-------2-----2-------2-----2/--------5-----5--------5-----0------|
A|---2-----2-------2-----2---------5-----5--------5-----5----------|
D|-2---2-----2---2---2-----2-----5---5-----5----5---5-----5--------|


Verse 1

e|-----------------------------------------------------------------|
B|-----------------------------------------------------------------|
G|-----------------------------------------------------------------|
D|-----4------4-----------4/2-0--------------5--------------5-----0|
A|--5-----5----------5----------0h2-0----5-----5---5----5-----5----|
D|0---0-----0------0---0---------------5---5-----5----5---5-----0--|

  When Your mind is mess so is a mess so is mine I can't sleep cause it hurts when I 
thought aren't at peace..

e|-----------------------------------------------------------------|
B|-----------------------------------------------------------------|
G|-----------------------------------------------------------------|
D|-------2-----2-------2-----2/--------5-----5--------5-----0------|
A|---2-----2-------2-----2---------5-----5--------5-----5----------|
D|-2---2-----2---2---2-----2-----5---5-----5----5---5-----5--------|

...with the plans that they make, chances we take they're not yours they're not mine, 
 waves that can break.
e|-----------------------------------------------------------------|
B|-----------------------------------------------------------------|
G|-----------------------------------------------------------------|
D|-----4------4-----------4/2-0--------------5--------------5-----0|
A|--5-----5----------5----------0h2-0----5-----5---5----5-----5----|
D|0---0-----0------0---0---------------5---5-----5----5---5-----0--|
All the words that we said and the words that we mean. Words can fall short can't see 
unseen.

e|-----------------------------------------------------------------|
B|-----------------------------------------------------------------|
G|-----------------------------------------------------------------|
D|-------2-----2-------2-----2/--------5-----5--------5-----0------|
A|---2-----2-------2-----2---------5-----5--------5-----5----------|
D|-2---2-----2---2---2-----2-----5---5-----5----5---5-----5--------|
Cause the worl is awake, for somebody's sake now, please close your eyes woman, please 
some sleep


Chorus

e|--------------------------------------------------------------------|
B|--------------------------------------------------------------------|
G|--------------------------------------------------------------------|
D|-------4--0---0----7/5-0-------0------------------------------------|
A|---5--------0---0----------5----------------------------------------|
D|-0---0-------------------5---5--------------------------------------|
And know that if I, knew all the answers I would

e|--------------------------------------------------------------------|
B|--------------------------------------------------------------------|
G|--------------------------------------------------------------------|
D|-------4--0---0----7/5-0-------0------------------------------------|
A|---5--------0---0----------5----------------------------------------|
D|-0---0-------------------5---5--------------------------------------|
not hold them from you. Know all of the things that I know


e|--------------------------------------------------------------------|
B|--------------------------------------------------------------------|
G|--------------------------------------------------------------------|
D|-------4--0---0----7/5-0-------0--------2-----2-----2---------------|
A|---5--------0---0----------5--------2-----2-----2-----2---2-/-------|
D|-0---0-------------------5---0----2---2-----2-----2-----2-----------|
We told each other there is no other way.......mm,mmmmmm

e|--------------------------------------------------------------------|
B|--------------------------------------------------------------------|
G|--------------------------------------------------------------------|
D|-------5----5----5--------------------------------------------------|
A|---5-----5----5----5---5--------------------------------------------|
D|-5---5-----5----5----5----------------------------------------------|

Interlude

e|-------------------------------------------------------------------------|
B|-------------------------------------------------------------------------|
G|-----0-----------------------------7-------------------------------------|
D|--7/9--9-0---------7/4----0----7/9---9-0---------7/4-----0---------------|
A|---------------7/9-----5---------------------7/9-----5-------------------|
D|-0------0---0------------0---0--------0----0-----------0-----------------|


e|-------------------------------------------------------------------------|
B|-------------------------------------------------------------------------|
G|-------9/7------------------------------7--------------------------------|
D|--7/9--9/7—-7--0--------7/4----0----7/9---9--0--------7/4------0---------|
A|--------------------7/9-----5---------------------7/9------5-------------|
D|0-------------0---0-----------0------------0----0------------0-----------|

Verse

e|-----------------------------------------------------------------|
B|-----------------------------------------------------------------|
G|-----------------------------------------------------------------|
D|-----4------4-----------4/2-0--------------5--------------5-----0|
A|--5-----5----------5----------0h2-0----5-----5---5----5-----5----|
D|0---0-----0------0---0---------------5---5-----5----5---5-----0--|

Well too much silence can be misleading. You're drifting  I can hear it in the way that 
breathing We...

e|-----------------------------------------------------------------|
B|-----------------------------------------------------------------|
G|-----------------------------------------------------------------|
D|-------2-----2-------2-----2/--------5-----5--------5-----0------|
A|---2-----2-------2-----2---------5-----5--------5-----5----------|
D|-2---2-----2---2---2-----2-----5---5-----5----5---5-----5--------|

don't really need to find reason cause out the same old door that we came, it's leaving, 
leaving
e|-----------------------------------------------------------------|
B|-----------------------------------------------------------------|
G|-----------------------------------------------------------------|
D|-----4------4-----------4/2-0--------------5--------------5-----0|
A|--5-----5----------5----------0h2-0----5-----5---5----5-----5----|
D|0---0-----0------0---0---------------5---5-----5----5---5-----0--|
Leaving like a day that's done and part ofa season, reason is just a concept that's as 
the leavers, but at least...

e|-----------------------------------------------------------------|
B|-----------------------------------------------------------------|
G|-----------------------------------------------------------------|
D|-------2-----2-------2-----2/--------5-----5--------5-----0------|
A|---2-----2-------2-----2---------5-----5--------5-----5----------|
D|-2---2-----2---2---2-----2-----5---5-----5----5---5-----5--------|
We can sleep. It's all that we need when we wake we would find our minds would be free 
go to sleep

Chorus

e|--------------------------------------------------------------------|
B|--------------------------------------------------------------------|
G|--------------------------------------------------------------------|
D|-------4--0---0----7/5-0-------0------------------------------------|
A|---5--------0---0----------5----------------------------------------|
D|-0---0-------------------5---5--------------------------------------|
And know that if I, knew all the answers I would

e|--------------------------------------------------------------------|
B|--------------------------------------------------------------------|
G|--------------------------------------------------------------------|
D|-------4--0---0----7/5-0-------0------------------------------------|
A|---5--------0---0----------5----------------------------------------|
D|-0---0-------------------5---5--------------------------------------|
not hold them from you. Know all of the things that I know


e|--------------------------------------------------------------------|
B|--------------------------------------------------------------------|
G|--------------------------------------------------------------------|
D|-------4--0---0----7/5-0-------0--------2-----2-----2---------------|
A|---5--------0---0----------5--------2-----2-----2-----2---2-/-------|
D|-0---0-------------------5---0----2---2-----2-----2-----2-----------|
Cause we told each other there is no other way.......mm,mmmmmm

e|--------------------------------------------------------------------|
B|--------------------------------------------------------------------|
G|--------------------------------------------------------------------|
D|-------5----5----5--------------------------------------------------|
A|---5-----5----5----5---5--------------------------------------------|
D|-5---5-----5----5----5----------------------------------------------|

Outro

e|-------------------------------------------------------------------------|
B|-------------------------------------------------------------------------|
G|-------0--------------------------------7--------------------------------|
D|---7/9---9---9--------7/4-----0-----7/9---9-0---------7/4----0-----------|
A|------------------7/9------5----------------------7/9------5-------------|
D|-0---------0----0------------0----0--------0----0-----------0------------|

e|-------------------------------------------------------------------------|
B|-------------------------------------------------------------------------|
G|-------0--------------------------------7--------------------------------|
D|---7/9---9---9--------7/4-----0-----7/9---9-0---------7/4----4-----------|
A|------------------7/9------5----------------------7/9------5-------------|
D|-0---------0----0------------0----0--------0----0-----------0-----0------|

| /  slide up
| \  slide down
| h  hammer-on
| p  pull-off
| ~  vibrato
| +  harmonic
| x  Mute note
===============================================================================
Suggest correction
Give kudos to tab author, rate the tab!
1 2 3 4 5
comments
print report bad tab
guest
You may want to rate the tab now too:
select rating
Wanna post a correction for this tab? Suggest correction