Oops, an error
Loading. Please wait.

No Other Way Tab

version 8
version 8

Interactive

3,993 views 9 this week
1 commentread comment
1 2 3 4 5
2 more votes to show rating
add to favorites
×
Save as Personal and add changes to this tab that will be seen only by you. Learn more ›
launch autoscroll
font size
0
reset
how to read this tab
guitar tuner
Autoscroll
slow
fast
+/-
esc
set tempo
stop
Author
Capo
3rd fret
-------------------------------------------------------------------------------
                             No Other Way - Jack Johnson
-------------------------------------------------------------------------------
Tabbed by:Jace
Email:

(Higher pitched guitar overdubs have been omitted)

Tuning:Drop D capo on 3rd fret. Notes are finger picked (sounds good with longer nails).

Intro First Riff:
e|--------------------------------------------------------------------------------------|
B|--------------------------------------------------------------------------------------|
G|-10h12-10h12-10---10-10h12-10h12-10-10-----10-10h12-10h12-10--10-10h12-10h12-10-10-0--|
D|-0-----0-----0--12---0-----0-----0----10h12---0-----0-----0-12---0-----0-----0----0---|
A|--------------------------------------------------------------------------------------|
D|--------------------------------------------------------------------------------------|

Intro Second Riff:
e|----------------------------------------------------------------------------------|
B|----------------------------------------------------------------------------------|
G|------10-------------------------10------------------------0----------------------|
D|-10/12--0-0-------10\7-0-0--10/12---0-0------10\7-0-0-10/12--0-0-------10\7-0-----|
A|-------------10/12----------------------10/12---------------------10/12-----------|
D|0--------0-0------------0-0----------0-0-----------0-0--------0-0-----------------|

e|------------------------------|
B|------------------------------|
G|--------10--------------------|
D|-0-10/12---0-0------10\7-0-0--|
A|---------------10/12----------|
D|0-0---------0-0-----------0---|

Verse
e|----------------------------------------------------------------------------|
B|----------------------------------------------------------------------------|
G|----------------------------------------------------------------------------|
D|---7---7---7\5-0-------8---8---8-------5---5---5-------8---8---8------------|
A|-8---8---8------5-0--8---8---8---8---5---5---5---5---8---8---8---8----------|
D|0-0-0-0-0-0---------8-8-8-8-8-8-8-0-5-5-5-5-5-5-5-5-8-8-8-8-8-8-8-8-Repeat--|

Chorus (picking pattern uncertain but chords are correct)
e|------------------------------------------------------------------------------|
B|------------------------------------------------------------------------------|
G|------------------------------------------------------------------------------|
D|---7---7---10------8--------------7---7---10-----8-----5---5---5-------8---8--|
A|-8---8---------10----8-Repeat---8---8---------10-----5---5---5---5---8---8----|
D|0-0-0-0--10--10---8-8----------0-0-0-0--10--10--8-0-5-5-5-5-5-5-5-5-8-8-8-8---|

e|---------------------------------|
B|---------------------------------|
G|---------------------------------|
D|---8-----Back-to-2nd-intro-riff--|
A|-8---8---------------------------|
D|8-8-8-8--------------------------|

2nd intro riff (variation)
e|------------------------------------------------------------------------------|
B|------------------------------------------------------------------------------|
G|------0------------------------10-----------------------12\10-----------------|
D|-10/12--0-0------10\7-0-0-10/12--0-0------10\7-0-0-10/12-----0-0------10\7-0--|
A|------------10/12--------------------10/12-----------------------10/12--------|
D|0--------0-0-----------0-0--------0-0-----------0-0-----------0-0-------------|

e|------------------------------------------------------|
B|------------------------------------------------------|
G|--------10--------------------------------------------|
D|-0-10/12---0-0------10\7-0-0--To-Second-,then-chorus--|
A|---------------10/12----------------------------------|
D|0-0---------0-0-----------0---------------------------|

Outro Riff:
e|-----------------------------------------------------------------------------|
B|-----------------------------------------------------------------------------|
G|------0------------------------10-----------------------0--------------------|
D|-10/12--0-0------10\7-0-0-10/12--0-0------10\7-0-0-10/12-0-0------10\7-0-0---|
A|------------10/12--------------------10/12-------------------10/12-----------|
D|0--------0-0-----------0-0--------0-0-----------0-0-------0-0-----------0-0--|

e|-----------------------------------------------------------------------------|
B|-----------------------------------------------------------------------------|
G|------10---------------------------------------------------------------------|
D|-10/12--0-0------10\7-0-0----------------------------------------------------|
A|------------10/12------------------------------------------------------------|
D|---------0-0-----------0-0---------------------------------------------------|


| /  slide up
| \  slide down
| h  hammer-on
| p  pull-off
| ~  vibrato
| +  harmonic
| x  Mute note
===============================================================================
Suggest correction
Give kudos to tab author, rate the tab!
1 2 3 4 5
comments
print report bad tab
1 comment total.
0 reply
mordain 10 Jul 30, 2009 11:54 AM

Yours is my favorite of the tabs for this song posted thus far because you are the only one that tabbed it as though it is open with no capo. That makes for less confusion for me personally.

guest
You may want to rate the tab now too:
select rating
Wanna post a correction for this tab? Suggest correction