Oops, an error
Loading. Please wait.

Ones And Zeros Tab

version 1
version 1

Whole song

Interactive

8,832 views 6 this week
no commentswrite comment
1 2 3 4 5
worth learning
x 3
add to favorites
launch autoscroll
font size
0
reset
how to read this tab
guitar tuner
Tab Pro tools
  • play this tab
  • loop segment
  • change instrument
  • show fretboard
  • metronome
×
Best way to learn
"Ones And Zeros"
Autoscroll
slow
fast
+/-
esc
set tempo
stop
Contributor
Difficulty
intermediate
-------------------------------------------------------------------------------
                             ONES AND ZEROS - Jack Johnson
-------------------------------------------------------------------------------
Tabbed by:Chris Warner
E-mail:cwarner3000@gmail.com

Use this link to tune your guitar, just plug in the notes below. Technically A# should 
be Bb but Bb isnt on the tuner.

http://www.get-tuned.com/online_guitar_tuner.php


Tuning:A# F C F A# D


Capo 2nd fret
Intro
D|-----0-----0---0------0-----0---0--------------------------------------------|
A#|------------0----------------0----------------------------------------------|
F|-------0h5--------------0h5--------------------------------------------------|
C|-----------------------------------------------------------------------------|
F|-0h5--------------0h5--------------------------------------------------------|
A#|----------------------------------------------------------------------------|

D|-----0----0---0-----0----0---0-----------------------------------------------|
A#|-----------0--------------0-------------------------------------------------|
F|-------0h3------------0h3----------------------------------------------------|
C|-----------------------------------------------------------------------------|
F|--0h3------------0h3---------------------------------------------------------|
A#|----------------------------------------------------------------------------|

D|-----------------------------------------------------------------------------|
A#|------0------0----0------0------0----0--------------------------------------|
F|------------0----0-------------0----0----------------------------------------|
C|-----------------------------------------------------------------------------|
F|-----------------------------------------------------------------------------|
A#|--0h5---5-----------0h5---5-------------------------------------------------|


Verse
D|-----0-----0---0------0-----0---0--------------------------------------------|
A#|------------0----------------0----------------------------------------------|
F|-------0h5--------------0h5--------------------------------------------------|
C|-----------------------------------------------------------------------------|
F|-0h5--------------0h5--------------------------------------------------------|
A#|----------------------------------------------------------------------------|
"Theres a black hole pulling me in I slowly bend"

D|-----0----0---0-----0----0---0-----------------------------------------------|
A#|-----------0--------------0-------------------------------------------------|
F|-------0h3------------0h3----------------------------------------------------|
C|-----------------------------------------------------------------------------|
F|--0h3------------0h3---------------------------------------------------------|
A#|----------------------------------------------------------------------------|
"til I see the back of my own sins"

D|-----------------------------------------------------------------------------|
A#|------0------0----0------0------0----0--------------------------------------|
F|------------0----0-------------0----0----------------------------------------|
C|-----------------------------------------------------------------------------|
F|-----------------------------------------------------------------------------|
A#|--0h5---5-----------0h5---5-------------------------------------------------|
"I stole my soul from my own self now I wonder"


Chorus

D|-----0-----0---0---------0---0----------------------------------------------------|
A#|------------0-------0-----0------------------------------------------------------|
F|-------0h5-------------0----------------------------------------------------------|
C|----------------------------------------------------------------------------------|
F|-0h5------------------------------------------------------------------------------|
A#|------------------5--------------------------------------------------------------|
"Theres this vine, tryin to climb"

D|---------0--------0-------0-----0---0-------0-----0---0--------------------|
A#|------0--------0-----------------0-----------------0----------------------|
F|-----0--------0-------------0h2---------------0h2--------------------------|
C|---------------------------------------------------------------------------|
F|----------------------0h2---------------0h2--------------------------------|
A#|--7--------5--------------------------------------------------------------|
"Into the window into my life, I dont mind, I don't"

D|---------0---------------------------------------------------------------------|
A#|----------0---------0-----0----5-----4----------------------------------------|
F|-----7-------0-----------0---0----0-----0--------------------------------------|
C|-------0---------------0------0-----0-----0------------------------------------|
F|-------------------------------------------------------------------------------|
A#|--7-------------0h5-----------------------------------------------------------|
"mind, I dont mind"


Bridge
D|-------0-----0---0------0------0---0------0-----0----0----------------------|
A#|--------------0-----------------0-----------------0------------------------|
F|---------0h5---------------0h7--------------0h5-----------------------------|
C|----------------------------------------------------------------------------|
F|---0h5--------------0h7---------------0h5-----------------------------------|
A#|---------------------------------------------------------------------------|

D|-------0-----0---0------0------0---0------0-----0----0-------------------------|
A#|--------------0-----------------0-----------------0---------------------------|
F|---------0h3---------------0h2--------------0h2--------------------------------|
C|-------------------------------------------------------------------------------|
F|---0h3--------------0h2---------------0h2--------------------------------------|
A#|------------------------------------------------------------------------------|

D|-----------------------------0--0--------------------------------------------|
A#|------0-----0---0------0--0--0----------------------------------------------|
F|-----------0---0----------0--------------------------------------------------|
C|-----------------------------------------------------------------------------|
F|-----------------------------------------------------------------------------|
A#|--0h5---0----------0h2------------------------------------------------------|

For Outro just play bridge twice



************************************

| /   slide up
| \   slide down
| h   hammer-on
| p   pull-off
| ~   vibrato
| +   harmonic
| x   Mute note
| b   Bend
| pb  Pre-bend
| br  Bend release
| pbr Pre-bend release
| brb Bend release bend

************************************
comments
We did not receive enough feedback on this tab! Please rate:
print report bad tab
1 2 3 4 5
I want to post or [tab]
guest
You may want to rate the tab now too:
select rating
Please do not post tabs as comments. Select "correction" instead!