Oops, an error
Loading. Please wait.

Posters tab

version 3
version 3

Whole song

Interactive

3,888 views 1 this week
no commentswrite comment
1 2 3 4 5
x 3
add to favorites
×
Save as Personal and add changes to this tab that will be seen only by you. Learn more ›
×
You can save this tab as Personal to edit and correct it or add notes. All changes will be seen only by you. Learn more »
launch autoscroll
font size
0
reset
how to read this tab
guitar tuner
edit
Autoscroll
slow
fast
+/-
esc
set tempo
stop
This is my first tab so it's not very straightforward. It's in order for the most
part, but most parts are used more than once. You should be able to figure it out though.

e|-------------------------------------9h12p9--------------|
B|-------------------------------------------12--9h12p9----|
G|-----6----------------6---------8--------------------11--|
D|-----7----------------7---------9------------------------|
A|---------------------------------------------------------|
E|5---------0h5--0h5---------7-----------------------------|


e|---------------------------------------------------------|
B|---------------------------------------------------------|
G|--4h6p4--5---4-4-4-4-4/6-6-6-6-6--6--9--8--6--4----------|
D|6------6-------------------------------------------------|
A|-------------2-2-2-2-2/4-4-4-4-4--4--7--6--4--2----------|
E|---------------------------------------------------------|


e|---------------------------------------------------------|
B|---------------------------------------------------------|
G|--4h6p4--5---4-4-4-4-4/6-6-6-6-6--6---5--5--7--7---------|
D|6------6-------------------------------------------------|
A|-------------2-2-2-2-2/4-4-4-4-4--4---3--3--5--5---------|
E|---------------------------------------------------------|


e|---------------------------------------------------------|
B|---------------------------------------------------------|
G|--4h6p4--5---4-4-4-4-4/6-6-6-6-6--6--9--8--6--4----------|
D|6------6-------------------------------------------------|
A|-------------2-2-2-2-2/4-4-4-4-4--4--7--6--4--2----------|
E|---------------------------------------------------------|


e|---------------------------------------------------------|
B|---------------------------------------------------------|
G|--4h6p4--5---4-4-4-4-4/6-6-6-6-6--6---5--5--7--7---------|
D|6------6-------------------------------------------------|
A|-------------2-2-2-2-2/4-4-4-4-4--4---3--3--5--5---------|
E|---------------------------------------------------------|


e|---------------------------------------------------------|
B|-----9----------9---------9----------9-------------------|
G|-----9----------9---------9----------9-------------------|
D|-----9----------9---------9----------9-------------------|
A|---------------------------------------------------------|
E|7---------7--7-------9---------9--9----------------------|


e|---------------------------------------------------------|
B|---------------------------------------------------------|
G|--4h6p4--5---4-4-4-4-4/6-6-6-6-6--6--9--8--6--4----------|
D|6------6-------------------------------------------------|
A|-------------2-2-2-2-2/4-4-4-4-4--4--7--6--4--2----------|
E|---------------------------------------------------------|


e|-----5----------------5---------7----------------7-------|
B|-----5----------------5---------7----------------7-------|
G|-----6----------------6---------8----------------8-------|
D|7---------7----7-7---------9---------9----9-9------------|
A|7---------7----7-7---------9---------9----9-9------------|
E|5---------5----5-5---------7---------7----7-7------------|

That's pretty much the chorus along with this a few times:

e|---------------------------------------------------------|
B|---------------------------------------------------------|
G|--4h6p4--5---4-4-4-4-4/6-6-6-6-6--6--9--8--6--4----------|
D|6------6-------------------------------------------------|
A|-------------2-2-2-2-2/4-4-4-4-4--4--7--6--4--2----------|
E|---------------------------------------------------------|


e|---------------------------------------------------------|
B|---------------------------------------------------------|
G|--4h6p4--5---4-4-4-4-4/6-6-6-6-6--6---5--5--7--7---------|
D|6------6-------------------------------------------------|
A|-------------2-2-2-2-2/4-4-4-4-4--4---3--3--5--5---------|
E|---------------------------------------------------------|

            
            
Suggest correction
Creating personal tab
Creating personal tab
You can edit any tab online and save it as your Personal.

You can edit, replace or remove any tab part or add personal notes – all changes will be seen only by you.

Personal tabs can be accessed anytime from any device, even offline.
Learn more »
Give kudos to tab author, rate the tab!
1 2 3 4 5
comments
print report bad tab
guest
Wanna post a correction for this tab? Suggest correction