Oops, an error
Loading. Please wait.

Questions tab

version 3
version 3

Whole song

  • In comparison to existing versions, I have added t... Show more
64 views 1 this week
no commentswrite comment
1 2 3 4 5
2 more votes to show rating
add to favorites
×
Save as Personal and add changes to this tab that will be seen only by you. Learn more ›
×
You can save this tab as Personal to edit and correct it or add notes. All changes will be seen only by you. Learn more »
launch autoscroll
font size
0
reset
how to read this tab
guitar tuner
edit
Autoscroll
slow
fast
+/-
esc
set tempo
stop
About this tab version
In comparison to existing versions, I have added the second half of the solo, the bridge, and a complete outro. This tab contains all parts of the song and all of the lyrics. Was this info helpful? Yes No
[INTRO]

e|----------------------------------------------------------------------|
B|----------------------------------------------------------------------|
G|-----------------------------------------------------2----------------|
D|---2h4--2--2----2h4--2--0h2p0-0------------------2-4---4-2---2--------|  2x
A|---0----0-----0-0----0-------4--2h4--2--2----2/4-----------4----------|
E|--------------------------------0----0-----0-0------------------------|


e|----------------------------------------------------------------------|
B|----------------------5-----------5h7--5--------5h7--5-----(5)--------|
G|--------2------4/6-------6----------------6-------------6-------------|
D|---2h4-----4----------------------------------------------------------|
A|---0----0------0------0-----------------------------------------------|
E|--------------------------------0-0----0------0-0----0----------------|


e|----------------------------------------------------------------------|
B|----------------------5-----------5h7--5---(5)--5h7-5---5-------------|
G|--------2------4/6-------6----------------6-----------6--(6)----------|
D|---2h4-----4----------------------------------------------------------|
A|---0----0------0------0-----------------------------------------------|
E|--------------------------------0-0----0------0-0-------0-------------|


[VERSE]

"Questions, I've got some questions. I want to know you, but what if I could ask you only

e|----------------------------------------------------------------------|
B|----------------------------------------------------------------------|
G|-----------------------------------------------------2----------------|
D|---2h4--2--2----2h4--2--0h2p0-0------------------2-4---4-2---2--------|
A|---0----0-----0-0----0-------4--2h4--2--2----2/4-----------4----------|
E|--------------------------------0----0-----0-0------------------------|

  one thing, only this one time, what would you tell me? Well maybe you could give me a su-

e|----------------------------------------------------------------------|
B|----------------------------------------------------------------------|
G|----------4brp2--------------------------------------2----------------|
D|---2h4--2-------2h4--2--0h2p0-0------------------2-4---4-2---2--------|
A|---0----0-------0----0-------4--2h4--2--2----2/4-----------4----------|
E|--------------------------------0----0-----0-0------------------------|

  -gestion, so I could know you. What would you tell me? Maybe you could tell me what to

e|----------------------------------------------------------------------|
B|----------------------------------------------------------------------|
G|-----------------------------------------------------2----------------|
D|---2h4--2--2----2h4--2--0h2p0-0------------------2-4---4-2---2--------|
A|---0----0-----0-0----0-------4--2h4--2--2----2/4-----------4----------|
E|--------------------------------0----0-----0-0------------------------|

  ask you, because then I’d know you. What would you tell me? Please tell me that there´s

e|----------------------------------------------------------------------|
B|----------------------------------------------------------------------|
G|----------------------------------------------------------------------|
D|---2h4--2--2----2h4--2--0h2p0-0---------------------------------------|
A|---0----0-----0-0----0-------4--2h4--2--2----2h4--2--2----------------|
E|--------------------------------0----0-----0-0----0-------------------|

  time to make this work for all intents and purposes. And what are your intentions?

e|----------------------------------------------------------------------|
B|----------------------------------------------------------------------|
G|---2h4--2--2----------------------6\4-4\2-2---------------------------|
D|---0----0--------4h6--4h6-4-2---------------4-4\2-2-0h2p0-0-----2-----|
A|----------------------------------0----------------------4--2h4-------|
E|---------------0-0----0-----------------------------------------------|

  Will you try...
       
e|----------------------------------------------------------------------|
B|----------------------5-----------5h7--5--------5h7--5---5------------|
G|--------2------4/6------6----------------6-------------6---(6)--------|
D|---2h4-----4----------------------------------------------------------|
A|---0----0------0------0-----------------------------------------------|
E|--------------------------------0-0----0------0-0---------------------|

  Will you try...

e|----------------------------------------------------5-----------------|
B|----------------------5-----------5h7--5--------5h7---7-5-------------|
G|--------2------4/6------6----------------6----------------6-----------|
D|---2h4-----4----------------------------------------------------------|
A|---0----0------0------0-----------------------------------------------|
E|--------------------------------0-0----0------0-0---------------------|


[SOLO]
        
e|-------------------------5--------5h7p5-------------------------------|
B|-------------------5-5/7----------------7-5---5-----------------------|
G|--------2------4/6--------------------------6---6-6\4-2\1-1-1h2p1-----|
D|---2h4-----4-----------------------------------------------------2-0--|
A|---0----0------0-----0------------------------------------------------|
E|--------------------------------0-0-----------------------------------|


e|-------------------------5--------------------------------------------|
B|-------------------5-5/7---------------7--7h9p7-----10-9-7------------|
G|--------2------4/6----------------7/9-----------9-7--------9-7\6-4\2--|
D|---2h4-----4----------------------------------------------------------|
A|---0----0------0-----0------------------------------------------------|
E|--------------------------------0-0-------0---------------------------|


[VERSE]

  Impressions, you’ve made impressions. They’re going nowhere. They’re just going to wait here if you
         
e|----------------------------------------------------------------------|
B|----------------------------------------------------------------------|
G|-----------------------------------------------------2----------------|
D|---2h4--2--2----2h4--2--0h2p0-0------------------2-4---4-2---2--------|
A|---0----0-----0-0----0-------4--2h4--2--2----2/4-----------4----------|
E|--------------------------------0----0-----0-0------------------------|

  let them. Please don’t let them. I want to know you. And if they’re going to haunt me please col-

e|----------------------------------------------------------------------|
B|----------------------------------------------------------------------|
G|-----------------------------------------------------2----------------|
D|---2h4--2--2----2h4--2--0h2p0-0------------------2-4---4-2---2--------|
A|---0----0-----0-0----0-------4--2h4--2--2----2/4-----------4----------|
E|--------------------------------0----0-----0-0------------------------|

  -lect them. Please just collect them. And now I’m begging. I’m begging you to ask me just one

e|----------------------------------------------------------------------|
B|----------------------------------------------------------------------|
G|-----------------------------------------------------2----------------|
D|---2h4--2--2----2h4--2--0h2p0-0------------------2-4---4-2---2--------|
A|---0----0-----0-0----0-------4--2h4--2--2----2/4-----------4----------|
E|--------------------------------0----0-----0-0------------------------|

  question, one simple question, because then you’d know me. I’ll tell you that there’s

e|----------------------------------------------------------------------|
B|----------------------------------------------------------------------|
G|----------------------------------------------------------------------|
D|---2h4--2--2----2h4--2--0h2p0-0---------------------------------------|
A|---0----0-----0-0----0-------4--2h4--2--2----2h4--2--2----------------|
E|--------------------------------0----0-----0-0----0-------------------|

  time to make this work for all intents and purposes, at least for my own.

e|--------------------------------------------------------2-------------|
B|------------------------------------------------------2---------------|
G|---2h4--2--2----------------------6\4-4\2-2---------------------------|
D|---0----0--------4h6--4h6-4-2---------------4-4-2-4-2-----------------|
A|----------------------------------0-----------------------------------|
E|---------------0-0----0-----------------------------------------------|


[BRIDGE]

  What is a heart worth if it’s just left all alone?

e|-------------------------2-------------|
B|-----------------------2---------------|
G|---6\4-4\2-2---------------------------|
D|-------------4-4-2-4-2-----------------|
A|---0-----------------------------------|
E|---------------------------------------|
 
  Leave it long enough and watch it turn into stone.

e|-------------------------2-------------|
B|-----------------------2---------------|
G|---6\4-4\2-2---------------------------|
D|-------------4-4-2-4-2-----------------|
A|---0-----------------------------------|
E|---------------------------------------|

  Must we all always be untrue?

e|---------------------------------------|
B|------------6-------------7------------|
G|---------6-------------7---------------|
D|------6-------------7------------------|
A|---4-------------5---------------------|
E|---------------------------------------|
 

[OUTRO]

  Be untrue...

e|----------------------------------------------------------------------|
B|----------------------------------------------------------------------|
G|-----------------------------------------------------2----------------|
D|---2h4--2--2----2h4--2--0h2p0-0------------------2-4---4-2---2--------|
A|---0----0-----0-0----0-------4--2h4--2--2----2/4-----------4----------|
E|--------------------------------0----0-----0-0------------------------|


e|----------------------------------------------------------------------|
B|----------------------------------------------------------------------|
G|-------------------------------------------------4-4h6-4-4------------|
D|---2h4--2--2----2h4--2--0h2p0-0--------------4/6----------------------|
A|---0----0-----0-0----0-------4--2h4--2--2-----------------------------|
E|--------------------------------0----0-----0-0-----0------------------|


e|---------------------------------------------------5---5--------------|
B|----------------------5---5------5h7--5---5----5h7---7---5------------|
G|--------2------4/6------6---------------6-----------------------------|
D|---2h4-----4----------------------------------------------------------|
A|---0----0------0------0-----------------------------------------------|
E|---------------------------------0----0--------0----------------------|


e|----------------------------------------------------------------------|
B|-------------------5-5/7-5----5h7-5-5-----7h9p7-----9-7-5-3-2---------|
G|--------2------4/6------------------------------9-7-------------------|
D|---2h4-----4----------------------------------------------------------|
A|---0----0------0-----0------------------------------------------------|
E|------------------------------0---0-----0-0---------------------------|

e|---------------|
B|---------------|
G|---------------|
D|---2h4--2------|
A|---0----0------|
E|---------------|


************************************

| (n) Ghost note
| h   Hammer-on
| p   Pull-off
| br  Bend release
| /   Slide up
| \   Slide down

************************************

            
            
Suggest correction
Creating personal tab
Creating personal tab
You can edit any tab online and save it as your Personal.

You can edit, replace or remove any tab part or add personal notes – all changes will be seen only by you.

Personal tabs can be accessed anytime from any device, even offline.
Learn more »
Give kudos to tab author, rate the tab!
1 2 3 4 5
comments
print report bad tab
guest
You may want to rate the tab now too:
select rating
Wanna post a correction for this tab? Suggest correction