Oops, an error
Loading. Please wait.

Rudolph The Red-Nosed Reindeer Chords

259,898 views 441 this week
6 commentsread comments
1 2 3 4 5
x 28
add to favorites
launch autoscroll
font size
0
reset
transpose
0
reset
display chords
guitar tuner
Autoscroll
slow
fast
+/-
esc
set tempo
stop
Help us to improve Ultimate-Guitar.com Take our survey!
×
Author
Album : Various Artists - Maybe This Christmas ('2002)
Ttrack #8/13

Note: Try to mute the high Eb on strumming 

eb:|------5------6-8p6---6-6------------------|
 B:|---------5-7-------7-7-5-----5--3/5\3--2--|
 G:|----6--------------------5/6----4/6\4--2--|
 D:|---7--------------------------------------|
 A:|--7---------------------------------------|
 E:|-5----------------------------------------|
                 ^
       (2nd guitar joins at A) 
A                                               E 
Rudolph The Red-Nosed Reineer, had a very shiny nose
E                                              A
And if you ever saw him, you might even say it glows
A                                                         E
And all of the other reindeer, used to laugh and call him names
E                                                A
They never let poor Rudolph join in any reindeer games
D                  A              E                A
And then one foggy Christmas Eve, Santa he came to say,
D                  A            E (let ring)
"Rudolph with your nose so red, won't you guide my sleigh tonight?"

eb:|----6-10---8------------------------------|
 B:|---5-----9---9---7p5---5-5----------------|
 G:|--6------------9-----6-6-4-4-6-4----------|
 D:|-7-------------------------------7--------|
 A:|------------------------------------------|
 E:|------------------------------------------|

A                                                         E
Then how the reindeer loved him, as they shouted out with glee,
E                                                  A
"Rudolph the Red-Nosed Reindeer, you'll go down in history"
D                     A                      E                        A
But Rudolph he didn't go for that, he said, "I see through your silly games.
D                   A                      E (let ring)                    
How can you look me in the face, when only yesterday you called me names?"
D                                  A
And all of the other reineer, man, they sure did feel ashamed.
E                               D (let ring)                       
"Rudolph, you know we're sorry, we're truly gonna try to change."


(End on "...change." with A, picking the low E)


Chord Shapes:
A: 57765-
E: -7999-
D: -5777-
Suggest correction
comments
print report bad tab
6 comments total. Showing first comments.
0 reply
LookAlive 10 Dec 06, 2008 04:42 PM

any particular reason for the eb?

+1 reply
graffitio_0321 32 Dec 15, 2008 05:38 PM

yeah tuning down to an eb just makes it more dificult.

e:|-----4-------5-7p5---5-5------------------|
B:|---------5-7-------7-7-5-----5--3/5\3--2--|
G:|---2---------------------5/6----4/6\4--2--|
D:|--2---------------------------------------|
A:|-0----------------------------------------|
E:|------------------------------------------|

thats much easier than using 6 and 8 because you can bar the fifth for the hammer-on. plus if you want to do a little improv over the chords like you can hear that jack is doing (or whoever it is if not jack) than it's easier than remembering that the high e string is tuned down.

+1 reply
ncroxalot4 215 Dec 26, 2008 03:35 PM

e:|----5--9---7------------------------------|
B:|---5-----9---9---7p5---5-5----------------|
G:|--6------------9-----6-6-4-4-6-4----------|
D:|-7-------------------------------7--------|
A:|------------------------------------------|
E:|------------------------------------------|

going along with graffitio 0321 changes here is the solo thing.

also i think you forgot a note for the intro first thing

e:|-----4-------5-7p5---5-5------------------|
B:|----2----5-7-------7-7-5-----5--3/5\3--2--|
G:|---2---------------------5/6----4/6\4--2--|
D:|--2---------------------------------------|
A:|-0----------------------------------------|
E:|------------------------------------------|

guest
You may want to rate the tab now too:
select rating
Wanna post a correction for this tab? Suggest correction