Oops, an error
Loading. Please wait.

Sharing Song tab

version 2
version 2

Whole song

2,347 views 3 this week
no commentswrite comment
1 2 3 4 5
3 more votes to show rating
add to favorites
×
Save as Personal and add changes to this tab that will be seen only by you. Learn more ›
×
You can save this tab as Personal to edit and correct it or add notes. All changes will be seen only by you. Learn more »
launch autoscroll
font size
0
reset
how to read this tab
guitar tuner
edit
Autoscroll
slow
fast
+/-
esc
set tempo
stop
Author
Difficulty
-------------------------------------------------------------------------------
                             Sharing Song – Jack Johnson
-------------------------------------------------------------------------------
Tabbed by:Pinecone
Email:cyarrow@homecall.co.uk

Tuning:Standard (EADGBe)

As this song is played on the piano, I wanted to work out a way of getting
the main 'riff' into a simple chord like guitar part so here it is.


INTRO and VERSE
e|----1------0---0------x---x------0-----0---------------------------|
B|----3------1---1------0---0------1-----1---------------------------|
G|----0------0---0------0---0------0-----0---------------------------|      X 6
D|----0------2---2------0---0------2-----2---------------------------|
A|----2------3---3------2---2------3-----3---------------------------|
E|-3--3------x---x------3---3------x-----x---------------------------|


VERSE DEVIATION x1
e|----0------1---1------0---0------1---1----------------------------|
B|----1------1---1------1---1------1---1----------------------------|
G|----0------2---2------3---3------2---2----------------------------|
D|----2------3---3------2---2------3---3----------------------------|
A|-3--3------3---3------3---3------3---3----------------------------|
E|----x------1---1------x---x------1---1----------------------------|


VERSE x1
e|----1------0---0------x---x------0-----0---------------------------|
B|----3------1---1------0---0------1-----1---------------------------|
G|----0------0---0------0---0------0-----0---------------------------|  
D|----0------2---2------0---0------2-----2---------------------------|
A|----2------3---3------2---2------3-----3---------------------------|
E|-3--3------x---x------3---3------x-----x---------------------------|


VERSE DEVIATION x1
e|----0------1---1------0---0------1---1----------------------------|
B|----1------1---1------1---1------1---1----------------------------|
G|----0------2---2------3---3------2---2----------------------------|
D|----2------3---3------2---2------3---3----------------------------|
A|-3--3------3---3------3---3------3---3----------------------------|
E|----x------1---1------x---x------1---1----------------------------|


SLIDE:
e|----10\----------------|
B|----10\----------------|
G|----11\----------------|
D|----12\----------------|
A|----12\----------------|
E|----10\----------------|


SHORT PIANO IMPROVISATION IN G


VERSE x4
e|----1------0---0------x---x------0-----0---------------------------|
B|----3------1---1------0---0------1-----1---------------------------|
G|----0------0---0------0---0------0-----0---------------------------|  
D|----0------2---2------0---0------2-----2---------------------------|
A|----2------3---3------2---2------3-----3---------------------------|
E|-3--3------x---x------3---3------x-----x---------------------------|


VERSE DEVIATION x1
e|----0------1---1------0---0------1---1----------------------------|
B|----1------1---1------1---1------1---1----------------------------|
G|----0------2---2------3---3------2---2----------------------------|
D|----2------3---3------2---2------3---3----------------------------|
A|-3--3------3---3------3---3------3---3----------------------------|
E|----x------1---1------x---x------1---1----------------------------|


VERSE x1
e|----1------0---0------x---x------0-----0---------------------------|
B|----3------1---1------0---0------1-----1---------------------------|
G|----0------0---0------0---0------0-----0---------------------------|  
D|----0------2---2------0---0------2-----2---------------------------|
A|----2------3---3------2---2------3-----3---------------------------|
E|-3--3------x---x------3---3------x-----x---------------------------|


VERSE DEVATION x1
e|----0------1---1------0---0------1---1----------------------------|
B|----1------1---1------1---1------1---1----------------------------|
G|----0------2---2------3---3------2---2----------------------------|
D|----2------3---3------2---2------3---3----------------------------|
A|-3--3------3---3------3---3------3---3----------------------------|
E|----x------1---1------x---x------1---1----------------------------|


SLIDE:
e|----10\----------------|
B|----10\----------------|
G|----11\----------------|
D|----12\----------------|
A|----12\----------------|
E|----10\----------------|


SHORT PIANO IMPROVISATION IN G

DRUM AND VOCAL SECTION   [IF YOU WANT YOU CAN PLAY THE VERSE 4 TIMES]

THEN:

VERSE x15  [WITH ALL DIFFERENT LYRICS OBVIOUSLY]

e|----1------0---0------x---x------0-----0---------------------------|
B|----3------1---1------0---0------1-----1---------------------------|
G|----0------0---0------0---0------0-----0---------------------------|  
D|----0------2---2------0---0------2-----2---------------------------|
A|----2------3---3------2---2------3-----3---------------------------|
E|-3--3------x---x------3---3------x-----x---------------------------|

THROUGHOUT THIS LAST SECTION THERE ARE LOTS OF LITTLE PIANO IMPROVISATIONS
AROUND THE G BLUES SCALE SO I JUST PLAY WHATEVER TAKES MY FANCY AT THE TIME
REALLY, OTHERWISE IT WOULDNT BE IMPROVISTAION I GUESS!!!

ANYWAY THATS IT SO I HOPE EVERYONE CAN ENJOY THIS FANTASTIC SONG :)

Suggest correction
Creating personal tab
Creating personal tab
You can edit any tab online and save it as your Personal.

You can edit, replace or remove any tab part or add personal notes – all changes will be seen only by you.

Personal tabs can be accessed anytime from any device, even offline.
Learn more »
Give kudos to tab author, rate the tab!
1 2 3 4 5
comments
print report bad tab
guest
You may want to rate the tab now too:
select rating
Wanna post a correction for this tab? Suggest correction