Oops, an error
Loading. Please wait.

Staple It Together Bass Tab

version 1
version 1

Whole song

Interactive

2,834 views 3 this week
3 commentsread comments
1 2 3 4 5
accurate
x 4
add to favorites
launch autoscroll
font size
0
reset
guitar tuner
Tab Pro tools
  • play this tab
  • loop segment
  • change instrument
  • show fretboard
  • metronome
×
Best way to learn
"Staple It Together"
Autoscroll
slow
fast
+/-
esc
set tempo
stop
Contributor
Staple it Together by Jack Johnson

Simple but cool bass line.

Verse 1
G------------------------------------------------------|
D------------------------------------------------------|
A-0-00-35--00000-3-5---0-00-35--00000-3-5-- repeat x4 -|
E------------------------------------------------------|

Chorus 1
G------------------------------------------------------|
D-7-77-50--77777-----7-77-50-77777---------------------|
A----------------53----------------53------------------|
E------------------------------------------------------|

Verse 2
G------------------------------------------------------|
D------------------------------------------------------|
A-0-00-35--00000-3-5---0-00-35--00000-3-5-- repeat x3 -|
E------------------------------------------------------|

Chorus 2
G------------------------------------------------------|
D-7-77-50--77777-----7-77-50-77777---------------------|
A----------------53----------------53------------------|
E------------------------------------------------------|

Bridge
G------------------------------------------------------|
D------------------------------------------------------|
A---0-0------0-0------0-0------0-0---------------------|
E------------------------------------------------------|

Verse 3
G------------------------------------------------------|
D------------------------------------------------------|
A-0-00-35--00000-3-5---0-00-35--00000-3-5--------------| pause for 4 bars then:
E------------------------------------------------------|

G------------------------------------------------------|
D------------------------------------------------------|
A-0-00-35--00000-3-5---0-00-35--00000-3-5--------------|
E------------------------------------------------------|

Chorus 3
G------------------------------------------------------|
D-7-77-50--77777-----7-77-50-77777---------------------|
A----------------53----------------53------ repeat x2 -|
E------------------------------------------------------|

Outro
G------------------------------------------------------|
D------------------------------------------------------|
A-0-00-35--00000-3-5---0-00-35--00000-3-5--------------|
E------------------------------------------------------|

G------------------------------------------------------|
D-7-77-50--77777-----7-77-50-77777---------------------|
A----------------53----------------53-----------0~-----|
E------------------------------------------------------|
comments
print report bad tab
3 comments total.
0 reply
Arlin wrote on July 12 2006, 06:47 am

Pretty damn good tab for a damn good song
There is only one mistake I can see
For the chorusy you put
G------------------------------------------------------|
D-7-77-50--77777-----7-77-50-77777---------------------|
A----------------53----------------53------------------|
E------------------------------------------------------|
When it's actually ( wherever played )
G------------------------------------------------------|
D-7-77-50--55555-----7-77-50-55555---------------------|
A----------------53----------------53------------------|
E------------------------------------------------------|
Other than that ace!

0 reply
indigo5 wrote on October 10 2006, 04:27 pm

The refrain is wrong

0 reply
carpplaysbass wrote on July 27 2007, 05:11 pm

This tab is very awkward. The verses are correct. But the rest is pretty screwy. If you want it to sound like the song, this tab is good at giving you a good start on some of the notes. The rest you're gonna have to learn by ear. I might submit my own tab for this so hang tight.

I want to post or [tab]
guest
You may want to rate the tab now too:
select rating
Please do not post tabs as comments. Select "correction" instead!