Oops, an error
Loading. Please wait.

Staple It Together Bass Tab

version 2
version 2

Whole song

Interactive

3,028 views 1 this week
no commentswrite comment
1 2 3 4 5
excellent!
x 3
add to favorites
launch autoscroll
font size
0
reset
guitar tuner
Autoscroll
slow
fast
+/-
esc
set tempo
stop
Help us to improve Ultimate-Guitar.com Take our survey!
×
------------------------------------------------------------------------------
                       STAPLE IT TOGETHER – Jack Johnson
------------------------------------------------------------------------------
Tabbed By: 0GibsonLesPaul0
Email: -----

Tuning: Standard
______________________________________________________________________________


INTRO | 1X

G|---------------------------------------------------------------------------|
D|---------------------------------------------------------------------------|
A|-------------5~--------------5~--------------5~--------------5~------------|
E|-5-5-5-5-5-8-----5-5-5-5-5-8-----5-5-5-5-5-8-----5-5-5-5-5-8---------------|


VERSE | 2X

G|---------------------------------------------------------------------------|
D|---------------------------------------------------------------------------|
A|-------------5~--------------5~--------------5~--------------5~------------|
E|-5-5-5-5-5-8-----5-5-5-5-5-8-----5-5-5-5-5-8-----5-5-5-5-5-8---------------|


CHORUS | 1X

G|---------------------------------------------------------------------------|
D|---------------------------------------------------------------------------|
A|----------7-5-----------5-3----------7-5-----------5-3---------------------|
E|-5-5-5-5-5-----3-3-3-3-3----5-5-5-5-5-----3-3-3-3-3------------------------|


PRE – VERSE | 1X

G|---------------------------------------------------------------------------|
D|---------------------------------------------------------------------------|
A|-------------5~--------------5~--------------5~--------------5~------------|
E|-5-5-5-5-5-8-----5-5-5-5-5-8-----5-5-5-5-5-8-----5-5-5-5-5-8---------------|


VERSE | 2X

G|---------------------------------------------------------------------------|
D|---------------------------------------------------------------------------|
A|-------------5~--------------5~--------------5~--------------5~------------|
E|-5-5-5-5-5-8-----5-5-5-5-5-8-----5-5-5-5-5-8-----5-5-5-5-5-8---------------|


CHORUS | 1X

G|---------------------------------------------------------------------------|
D|---------------------------------------------------------------------------|
A|----------7-5-----------5-3----------7-5-----------5-3---------------------|
E|-5-5-5-5-5-----3-3-3-3-3----5-5-5-5-5-----3-3-3-3-3------------------------|


PRE – SOLO | 1X

G|---------------------------------------------------------------------------|
D|---------------------------------------------------------------------------|
A|---------------------------------------------------------------------------|
E|--5—-5-------5—-5--------5—-5-------5—-5-----------------------------------|


SOLO (guitar) | 1X

G|---------------------------------------------------------------------------|
D|---------------------------------------------------------------------------|
A|-------------5~--------------5~--------------5~--------------5~------------|
E|-5-5-5-5-5-8-----5-5-5-5-5-8-----5-5-5-5-5-8-----5-5-5-5-5-8---------------|


VERSE | 2X

G|---------------------------------------------------------------------------|
D|---------------------------------------------------------------------------|
A|-------------5~--------------5~--------------5~--------------5~------------|
E|-5-5-5-5-5-8-----5-5-5-5-5-8-----5-5-5-5-5-8-----5-5-5-5-5-8---------------|


CHORUS | 2X

G|---------------------------------------------------------------------------|
D|---------------------------------------------------------------------------|
A|----------7-5-----------5-3----------7-5-----------5-3---------------------|
E|-5-5-5-5-5-----3-3-3-3-3----5-5-5-5-5-----3-3-3-3-3------------------------|


OUTRO | 1X

G|---------------------------------------------------------------------------|
D|---------------------------------------------------------------------------|
A|-------------5~--------------5~--------------5~--------------5~------------|
E|-5-5-5-5-5-8-----5-5-5-5-5-8-----5-5-5-5-5-8-----5-5-5-5-5-8---------------|

G|---------------------------------------------------------------------------|
D|---------------------------------------------------------------------------|
A|----------7-5-----------5-3----------7-5-----------5-3---------------------|
E|-5-5-5-5-5-----3-3-3-3-3----5-5-5-5-5-----3-3-3-3-3------------------------|



Suggest correction
Give kudos to tab author, rate the tab!
1 2 3 4 5
comments
print report bad tab
guest
You may want to rate the tab now too:
select rating
Please do not post tabs as comments. Select "correction" instead!