Oops, an error
Loading. Please wait.

Staple It Together tab

version 2
version 2

Whole song

Interactive

15,658 views 9 this week
3 commentsread comments
1 2 3 4 5
x 8
add to favorites
×
Save as Personal and add changes to this tab that will be seen only by you. Learn more ›
×
You can save this tab as Personal to edit and correct it or add notes. All changes will be seen only by you. Learn more »
launch autoscroll
font size
0
reset
how to read this tab
guitar tuner
edit
Autoscroll
slow
fast
+/-
esc
set tempo
stop
Jack Johnson- Staple It Together

intro

--------------------------------------------|
xxx---5-x-5-x-7-7-7-555-x-5--55-7-7-7-555---|
xxx---5-x-5-x-7-7-7-555-x-5--55-7-7-7-555---|
--------------------------------------------|
--------------------------------------------|
--------------------------------------------|

verse
(i think this is played on bass but here it is anyway)


---------------------------------------------|
---------------------------------------------|
---------------------------------------------|
---------------------------------------------|
--0----0----3----5----33333--3---5-----------|
---------------------------------------------|

then the intro comes in again on guitar

chorus

--------------------------------------------------------------|
-5-xx-5---strum>>-7-7-7-7-------------------------------------|
-5-xx-5-----------7-7-7-7---4-xx-4---strum>>>-5-5-5-5---------|   x2
-5-xx-5-----------7-7-7-7---5-xx-5------------5-5-5-5---------|
-3-xx-3-----------5-5-5-5---5-xx-5------------3-3-3-3---------|
----------------------------5-xx-3----------------------------|

1st interlude
(ime not 100%sure about this section but i think it sounds ok-ish)
-----------------------------------------------------------|
--5-xx-5-------7-5-77B-5---------5-xx-5--------------------|
--5-xx-5-----------------7-5-----5-xx-5--------------5-----|
--5-xx-5-------------------------5-xx-5----------5H7---7---|
--3-xx-3-------------------------3-xx-3------5H7-----------|
-----------------------------------------------------------|

--------------------------------------9-7-5-4--------------|
--5-xx-5----7-7-7-555------5-xx-5-----9-7-5-4--------------|
--5-xx-5----7-7-7-555------5-xx-5--------------------------|
--5-xx-5-------------------5-xx-5--------------------------|
--3-xx-3-------------------3-xx-3--------------------------|
-----------------------------------------------------------|

there are a few more little fill in which jak does-
after all of them the interlude ends on
                                            e-string>---7---|
                                            B-string>---7---|

verse- play the intro

chorus- play chorus!
(chorus is a little longer the second time but still the same notes just played once or twice more.)

2nd interlude

----------------------------------------------|
----------------------------------------------|
---------5-7-----------5-7--7s9-7-5-----------|
--7-xx-7---------77777--------------7---------|
----------------------------------------------|
----------------------------------------------|


----------------------------------------------|
---------------------------7B-7B-7B-5---------|
---------5-7------------5--7B-7B-7B-5---------|
--7-xx-7----------77777-----------------------|
----------------------------------------------|
----------------------------------------------|

--------------------------------------------------------------------5-----|
--------------------------8-------------------------------------7---5-----|
----------9-7--------7-5-7-7-5---------9 7-7s9-7 5--------7-5---7---6-----|
---7--777-------55555----------5s7-777------------7-55555-----------7-----|
--------------------------------------------------------------------7-----|
--------------------------------------------------------------------5-----|
                                                                 end on


if there are any problems then you can e-mail me on
willie_wonker911@hotmail.com

this is my first tab so please bare with me

will.

            
            
Suggest correction
Creating personal tab
Creating personal tab
You can edit any tab online and save it as your Personal.

You can edit, replace or remove any tab part or add personal notes – all changes will be seen only by you.

Personal tabs can be accessed anytime from any device, even offline.
Learn more »
comments
print report bad tab
3 comments total.
0 reply
jonnyaykroyd 10 Jan 09, 2006 01:42 PM

9-7-5-4--------------|
9-7-5-4--------------|
---------------------|
---------------------|
---------------------|
---------------------|

I believe the above at the end of the first interval should be corrected to this:

7/8-7-5--------------|
7/8-7-5--------------|
---------------------|
---------------------|
---------------------|
---------------------|

0 reply
Daniel Pearce 222 Feb 16, 2007 01:30 AM

Great first tab mate!!! 5 star

0 reply
Willis155 30 Nov 15, 2008 06:17 PM

love this song and love this tab good effort

guest
Wanna post a correction for this tab? Suggest correction