Oops, an error
Loading. Please wait.

Talk Of The Town intro tab

19,182 views 12 this week
4 commentsread comments
1 2 3 4 5
x 19
add to favorites
×
Save as Personal and add changes to this tab that will be seen only by you. Learn more ›
×
You can save this tab as Personal to edit and correct it or add notes. All changes will be seen only by you. Learn more »
launch autoscroll
font size
0
reset
how to read this tab
guitar tuner
edit
Autoscroll
slow
fast
+/-
esc
set tempo
stop
Author
Difficulty
----------------------------------------------------------------------------
                    Talk of the Town (Intro) - Jack Johnson
----------------------------------------------------------------------------
Tabbed by:Andrew (Thanks Andrew for the corrections)
Email:Calvinexp@hotmail

Tuning:Standard 

e|---3---5---7---5---3---5---7---5---3---5---3---0---0h3p0-----------------|
B|------------------------------------------------------------------0------|
G|---4---5---7---5---4---5---7---5---4---5---4---0-------------------------|
D|-------------------------------------------------------------------------|
A|-------------------------------------------------------------------------|
E|-------------------------------------------------------------------------|

e|---------5---------7---5---3---5---3---0h3---5---3---0---0h3p0-----------|
B|-----------------------------------------------------------------0-------|
G|---4/5-------5/7-------5---4---5---4---0h4---5---4---0-------------------|
D|-------------------------------------------------------------------------|
A|-------------------------------------------------------------------------|
E|-------------------------------------------------------------------------|

            
            
Suggest correction
Creating personal tab
Creating personal tab
You can edit any tab online and save it as your Personal.

You can edit, replace or remove any tab part or add personal notes – all changes will be seen only by you.

Personal tabs can be accessed anytime from any device, even offline.
Learn more »
comments
print report bad tab
4 comments total. Showing first comments.
0 reply
redwood2279 10 May 03, 2006 06:45 PM

That sounds pretty good

0 reply
pmal 16 Jun 30, 2007 03:47 PM

not accurate.. theres slides everywhere , ect 0h3p0 is wrong

+4 reply
Demon_AS 10 Aug 18, 2008 12:25 PM

e---/7---5---4---/5---4---0-----------------5------7-----5--3--/5--3------5--
B-----------------------------3h5p3p0----------------------------------------
G---/7---5---3---/5---3---0-------------4/5----5/7---7---5--4--/5--4--4/5----
D----------------------------------------------------------------------------
A----------------------------------------------------------------------------
E----------------------------------------------------------------------------

That's what it is :).

guest
You may want to rate the tab now too:
select rating
Wanna post a correction for this tab? Suggest correction