Oops, an error
Loading. Please wait.

Tomorrow Morning Tab

version 2
version 2

Whole song

16,151 views 30 this week
no commentswrite comment
1 2 3 4 5
excellent!
x 8
add to favorites
launch autoscroll
font size
0
reset
how to read this tab
guitar tuner
Autoscroll
slow
fast
+/-
esc
set tempo
stop
Help us to improve Ultimate-Guitar.com Take our survey!
×
Author
Difficulty
novice
-------------------------------------------------------------------------------
                             Tomorrow Morning - Jack Johnson
-------------------------------------------------------------------------------
Tabbed by: MacGruder13
Email: Dorestad13@hotmail.com

Tuning: Standard

Intro

e|----------x--5--x----------x--5-5--x------------------3--x----------x--5--|
B|----------x--7--x----------x--5-5--x------------------3--x----------x--7--|
G|----------x--5--x----------x--6-6--x------------------4--x----------x--5--|
D|----------x--7--x----4--7--x--7-7--x--4h2-------------5--x----------x--7--|
A|-------5--x--5--x--5-------x--x-x--x------5-2p0----------x-------5--x--5--|
E|---5-7----x-----x----------x--5-5--x------------0--3-----x--5-7-----x-----|

e|----------x--5--x----------x--5-5--x-----------3--x---------x--5----------|
B|----------x--7--x----------x--5-5--x-----------3--x---------x--7----------|
G|----------x--5--x----------x--6-6--x-----------4--x---------x--5----------|
D|----------x--7--x----4--7--x--7-7--x--4-2------5--x---------x--7----------|
A|-------5--x--5--x--5-------x--x-x--x------5-------x------5--x--5----------|
E|---5-7----x-----x----------x--5-5--x--------3-----x--5-7----x-------------|

e|----------x--5--x----------x--5-5--x------------------3--x----------x--5--|
B|----------x--7--x----------x--5-5--x------------------3--x----------x--7--|
G|----------x--5--x----------x--6-6--x------------------4--x----------x--5--|
D|----------x--7--x----4--7--x--7-7--x--4h2-------------5--x----------x--7--|
A|-------5--x--5--x--5-------x--x-x--x------5-2p0----------x-------5--x--5--|
E|---5-7----x-----x----------x--5-5--x------------0--3-----x--5-7-----x-----|


Chords w/ lyrics


Verse 1


D                           F#

What would you do if i wrote you a song

           Em7                     A

Would you give me some lovin' when i get home

             D                    F#

Or would you be mad at me if i had a hard time

           Em7            G7
Getting a hold of you, i try all the time



Chorus


D            Bm                 A                 D        Bm

I'll bet that, you don't know anybody that could be, so bad

Em7              A                         D        Bm

   But if you did, you'd be wonderin' where, I'm at

Em7                 A

I'll be home when tomorrow morning comes.


Solo


e|-------------------|-------------------|-----------------------0h2--0h2-|
B|-------------------|-------------------|-----------------------0h3--0h3-|
G|---------7-9\7-----|------11--14--11\--|------2----------------0----0---|
D|-----7-9-------9\--|-/12---------------|-2h4----4-2--0------------------|
A|-/9----------------|-------------------|--------------------------------|
E|-------------------|-------------------|---------------2--1-0-----------|


Verse 2

D                          F#

What would you do if i sang you this song

       Em7                        A

The connection is bad, but that's only the phone

              D                     F#

'Cause when my words kiss your ear, I'll be right there

    Em7                          G7

The message is long, 'cause baby this is your song


Chorus


D            Bm                 A                 D        Bm

I'll bet that, you don't know anybody that could be, so bad

Em7              A                         D        Bm

   But if you did, you'd be wonderin' where, I'm at

Em7                 A

I'll be home when tomorrow morning...

    D            Bm                 A                 D        Bm

And I'll bet that, you don't know anybody that could be, so bad

Em7              A                         D        Bm

   But if you did, you'd be wonderin' where, I'm at

Em7                 A

I'll be home when tomorrow morning...

D                     Bm

  And that's alright,

       Em7                 A

'Cause I'll be home when tomorrow morning...

D              Bm

  And that's all-right, 

       Em7                 A                   D

'Cause I'll be home when tomorrow morning comes.


************************************

| /   slide up
| \   slide down
| h   hammer-on
| p   pull-off
| ~   vibrato
| +   harmonic
| x   Mute note
| b   Bend
| pb  Pre-bend
| br  Bend release
| pbr Pre-bend release
| brb Bend release bend

************************************
Suggest correction
comments
print report bad tab
guest
You may want to rate the tab now too:
select rating
Wanna post a correction for this tab? Suggest correction