Oops, an error
Loading. Please wait.

Upside Down Chords

version 2
version 2

Whole song

Interactive

Video

1,046,234 views 1,794 this week
35 commentsread comments
1 2 3 4 5
excellent!
x 321
add to favorites
launch autoscroll
font size
0
reset
transpose
0
reset
display chords
guitar tuner
Autoscroll
slow
fast
+/-
esc
set tempo
stop
Help us to improve Ultimate-Guitar.com Take our survey!
×
Author
Difficulty
intermediate
Jack Johnson
Upside Down
Tabbed by Phil Goy

Standard tuning
EADGBE


[Intro]

(Guitar 1)

   E                                           F#m 
E|-0--0--0-0--0-0-0-0-0--0--0--0-0--0-0-0-0-0-|-2--2--2-2--2-2-2-2-2--2--2--2-2--2-2-2-2-2-|
B|-0--0--0-0--0-0-0-0-0--0--0--0-0--0-0-0-0-0-|-2--2--2-2--2-2-2-2-2--2--2--2-2--2-2-2-2-2-|
G|-1--1--1-1--1-1-1-1-1--1--1--1-1--1-1-1-1-1-|-2--2--2-2--2-2-2-2-2--2--2--2-2--2-2-2-2-2-| x2
D|-2--2--2-2--2-2-2-2-2--2--2--2-2--2-2-2-2-2-|-4--4--4-4--4-4-4-4-4--4--4--4-4--4-4-4-4-4-|
A|-2--2--2-2--2-2-2-2-2--2--2--2-2--2-2-2-2-2-|-4--4--4-4--4-4-4-4-4--4--4--4-4--4-4-4-4-4-|
E|-0--0--0-0--0-0-0-0-0--0--0--0-0--0-0-0-0-0-|-2--2--2-2--2-2-2-2-2--2--2--2-2--2-2-2-2-2-|

(Guitar 2)

E|---0----------------0-------------------2----------------0------|
B|---0----------------0-------------------2----------------0------|
G|---1-----------4----1-----------4---6---2----------------1------|
D|---2------4/6-------2------4/6----------4----4h6--4h6-4--2------| x2
A|---2----------------2-------------------4----------------2------|
E|---0----------------0-------------------2----------------0------|


[Verse]

(same as intro)

E
Who's to say
E 
What's impossible
F#m
Well they forgot
F#m
This world keeps spinning
         E
And with each new day
E                    F#m          F#m
I can feel a change in everything
                           E                 E
And as the surface breaks reflections fade
                F#m                   F#m
But in some ways they remain the same
                    E                     E
And as my mind begins to spread its wings
                    F#m       
There's no stopping curiosity


[Chorus]

     E         F#m                       A         B
E|---0---0-----2--2---2--2--2--2--2------2---2-----------------------|
B|---0---0-----2--2---2--2--2--2--2------2---2-----4--4--4--4--4-----|
G|---1---1-----2--2---2--2--2--2--2------2---2-----4--4--4--4--4-----|
D|---2---2-----4--4---4--4--4--4--4------2---2-----4--4--4--4--4-----|
A|---2---2-----4--4---4--4--4--4--4------0---0-----2--2--2--2--2-----|
E|---0---0-----2--2---2--2--2--2--2------0---0-----0--0--0--0--0-----|
      
                            
F#m                             E      F#m
I want to turn the whole thing upside down
A       B                        E       F#m
All finer things they say just can't be found
A    B                        E         F#m
I'll share this love I find with everyone
A       B                      E          F#m
We'll sing and dance to Mother Nature's songs
A      B                             E
I don't want this feeling to go away


[Instrumental]

E|---0----------------0-------------------2----------------0------|
B|---0----------------0-------------------2----------------0------|
G|---1-----------4----1-----------4---6---2----------------1------|
D|---2------4/6-------2------4/6----------4----4h6--4h6-4--2------| x2
A|---2----------------2-------------------4----------------2------|
E|---0----------------0-------------------2----------------0------|


[Verse]

E
Who's to say
E
I can't do everything
F#m
Well I can try 
                               E
And as I roll along I begin to find 
                          F#m
Things aren't always just what they seem


[Chorus]

    F#m                     E     F#m
I want to turn the whole thing upside
 A       B                         E      F#m
All finer things they say just can't be found
 A      B                        E       F#m
I'll share this love I find with everyone
 A      B                      E          F#m
We'll sing and dance to Mother Nature's songs
 A      B                              Abm        F#m
This world keeps spinning and there's no time to waste
      Abm                  F#m                    B
Well it all keeps spinning spinning round and round and 
E          F#m
Upside down
A          B                         E          F#m
Who's to say what's impossible and can't be found
A            B                      E
I don't want this feeling to go away 


[Outro]

E|---0----------------0-------------------2----------------0------|
B|---0----------------0-------------------2----------------0------|
G|---1-----------4----1-----------4---6---2----------------1------|
D|---2------4/6-------2------4/6----------4----4h6--4h6-4--2------| x2
A|---2----------------2-------------------4----------------2------|
E|---0----------------0-------------------2----------------0------|
                                                Please don't go away

E|---0----------------0-------------------2----------------0------|
B|---0----------------0-------------------2----------------0------|
G|---1-----------4----1-----------4---6---2----------------1------|
D|---2------4/6-------2------4/6----------4----4h6--4h6-4--2------| x2
A|---2----------------2-------------------4----------------2------|
E|---0----------------0-------------------2----------------0------|
                                             Is this how it's supposed to be


***********************
|/     Slide up      
|x     Muted String
|h     Hammer-on 
***********************
Suggest correction
comments
print report bad tab
35 comments total. Showing first comments.
0 reply
twinkielove 10 wrote on January 31 2006, 11:41 am

awsome job sounds great

0 reply
nabet 31 wrote on February 5 2006, 07:52 pm

man great job! love the song

+2 reply
Doc Turtle 31 wrote on February 15 2006, 08:26 am

Great job boss.

guest
You may want to rate the tab now too:
select rating
Please do not post tabs as comments. Select "correction" instead!