Oops, an error
Loading. Please wait.

What You Thought You Need tab

version 3
version 3

Whole song

45,871 views 30 this week
6 commentsread comments
1 2 3 4 5
x 23
add to favorites
×
Save as Personal and add changes to this tab that will be seen only by you. Learn more ›
×
You can save this tab as Personal to edit and correct it or add notes. All changes will be seen only by you. Learn more »
launch autoscroll
font size
0
reset
how to read this tab
guitar tuner
edit
Autoscroll
slow
fast
+/-
esc
set tempo
stop
Difficulty
intermediate
E-mail me at i3ericb@hotmail.com if you have questions.

e-----------------------------------------------------|
B-----------------------------------------------------|
G-----------------------------------------------------|
D-----2s5--------5s7------s5--------------------------|
A--3---------7---------8---------7---8---7------------|
E-----------------------------------------------8-----|

then during the humming

e--------------------------------------------------------------|
B--------------------------------------------------------------|
G--------------------------------------------------------------|
D----2----2-----9---9--------2---2-----9---9s10s12-------------|
A--3----3----s7---7--7-----3---3---s7---7----------------------|
E--------------------------------------------------------------|

Verse

C Chord is played like this

e---0-------|
B---1-------|
G---0-------|
D---0h2-----|
A---3-------|
E---0-------|

Chords

C                Em
Hmm  hmm hmm hmm hmm
C                Em
Hmm  hmm hmm hmm hmm
Dm               C
Hmm  hmm hmm hmm hmm
Dm                C
Hmm  hmm hmm hmm hmm


C
I can't give you everything you want
                                          Dm
But I could give you what you thought you needed

A map to keep beneath your seat
                                       C
you've been to me in time I'll get you there
  Dm
I fold it up so we don't find our way back soon
                    C
nobody knows we are here


We can park the van and walk to town
                                           Dm
Find cheapest bottle of wine that we could find

And talk about the road behind
                                   C
how getting lost is not a waste of time.
    Dm
The water moor will take us home in the moment
                           C
we will sing as the forest sleeps

          Em           Dm                    C
Well it's all for the sake of arriving with you
          Em           Dm                    C
Well it's all for the sake of arriving with you


I will make the table into a bed
The candle is burning down its time to rest
I can't take back things already gone
but I could give you promises for keeps
And I would only take them back if they become your own
and you give 'em to me


And it's all for the sake of arriving with you
Well it's all for the sake of arriving with you

         Em
We could make this into anything
         Dm                                C
We could make this into more than words we speak
         Em
This could make us into anything
         Dm                                C
It could make us grow and become what we'll be


intro

C                Em
Hmm  hmm hmm hmm hmm
C               Em
How and we will know
                  Dm
It's just like it feels
                  C
It's just like it feels


intro


C                Em
Hmm  hmm hmm hmm hmm
C                 Em
How can we really know
                  Dm
It's just like it feels
                  C
It's just like it feels
                  Dm
It's just like it feels
            C
How does it feel
                  Dm
It's just like it feels
                  C
It's just like it feels
Suggest correction
Creating personal tab
Creating personal tab
You can edit any tab online and save it as your Personal.

You can edit, replace or remove any tab part or add personal notes – all changes will be seen only by you.

Personal tabs can be accessed anytime from any device, even offline.
Learn more »
comments
print report bad tab
6 comments total. Showing first comments.
+1 reply
Goldpuma666 10 Jun 11, 2008 01:39 AM

Great tab, you should make more.

0 reply
Thomps254 10 Aug 08, 2008 08:29 AM

good tab, but try tuning the low E down to a C. For the intro, strum the low C in between each note, on the beat. (Watch the live youtube video to see what I mean) Also, for the Dm barre chord, barre all six strings so that the low C string becomes the F in the bass that you hear. Other than that, great tab.

+2 reply
i3ericb 10 Dec 26, 2008 07:58 AM

There are three chords being played in the intro and i tabbed it wrong; I only have him playing two... he plays a c then e minor twice, then comes the side part that i tabbed, after the slide comes a dm, c, dm, and c again... then the verse starts


C Em C Em Dm C Dm C

e-----------------------------------------------------------------------------------------------------------------------------|
B-----------------------------------------------------------------------------------------------------------------------------|
G-----------------------------------------------------------------------------------------------------------------------------|
D----2----2-----9---9--------2---2-----9---9s10s12-------7----7-----7--------2----2----2-----7----7----7----2---2---2------|
A--3----3----s7---7--7-----3---3---s7---7--------------5----5----5---------3----3----3-----5----5----5-----3---3---3-------|
E-----------------------------------------------------------------------------------------------------------------------------|

and the first 4 notes are

e------8--5---------------------------------------------------------------------------------------------------------------------|
B-------------5-----8-----------------------------------------------------------------------------------------------------------|

guest
Wanna post a correction for this tab? Suggest correction