Oops, an error
Loading. Please wait.

Wrong Turn tab

version 2
version 2

Whole song

Interactive

10,354 views 6 this week
4 commentsread comments
1 2 3 4 5
x 8
add to favorites
×
Save as Personal and add changes to this tab that will be seen only by you. Learn more ›
×
You can save this tab as Personal to edit and correct it or add notes. All changes will be seen only by you. Learn more »
launch autoscroll
font size
0
reset
how to read this tab
guitar tuner
edit
Autoscroll
slow
fast
+/-
esc
set tempo
stop
Tuning: Normal (EADGBe)

These 2 riffs are repeated several times until the end of the indicated lyric sections. 
little diddy. Go Jack.

Riff #1

e--------0-----------------------------------------------------------------|
B---1------1---1---1------1-----1---1------1------1---1----1---------------|
G-----0--------------0------0---------0------0----------0----0---0---------|
D-------2----2---3------2-----0--------------------------------0-----------|
A-3--------------------------------------0----------------2----------------|
E---------------------------------1------------1----3----------------------|

And I will wait here a while
Just long enough to be sure that you didn’t make a wrong turn
And I wait long enough
Maybe an hour or two
Before I decide
It wasn’t me it was you
Wasn’t me it was you
And I would like you to know
Although it seems sad to say
This was only the worst hour of my day
The worst hour of my day

Riff #2

e---------------------------------------------------------------------------|
B---1------1------1----1------1------1---1----1----------1----1-------------|
G-----0------0-----------0------0----------0----0---0------0----0---0-------|
D-------------------------------------------------0---------------0---------|
A--------0-----3------------0-----3----------2---------------2--------------|
E-1------------------1-----------------3---------------3--------------------|

How long has it been on your mind?
Do you think about it when we lie?
I think it’s a big mistake
Cause I think that we could make it last
Even if it’s just for a while

Riff #1

e--------0-----------------------------------------------------------------|
B---1------1---1---1------1-----1---1------1------1---1----1---------------|
G-----0--------------0------0---------0------0----------0----0---0---------|
D-------2----2---3------2-----0--------------------------------0-----------|
A-3--------------------------------------0----------------2----------------|
E---------------------------------1------------1----3----------------------|

Wait here for now
Just along enough to be
Sure that you really want to go through with this
Cause I really wanna go through with this
And do you really wanna go through with this?

Have fun wit it.

ski_bunnee
Suggest correction
Creating personal tab
Creating personal tab
You can edit any tab online and save it as your Personal.

You can edit, replace or remove any tab part or add personal notes – all changes will be seen only by you.

Personal tabs can be accessed anytime from any device, even offline.
Learn more »
comments
print report bad tab
4 comments total. Showing first comments.
0 reply
ehsports15 10 Feb 20, 2006 06:13 AM

Excellent tab, I was wondering if you or anyone could tab the 2nd guitar for this song. That would be awesome.

0 reply
hoon4 60 Feb 23, 2006 09:37 AM

great tab.... theres only one guitar track in the song the other track is a ukele

0 reply
ehsports15 10 Feb 26, 2006 07:32 AM

ahh ic thanks hoon, well if someone could tab the ukalele i'd apprectiate it.

guest
Wanna post a correction for this tab? Suggest correction