Oops, an error
Loading. Please wait.

Another Way To Die Tab

version 2
version 2

Whole song

Interactive

10,655 views 1 this week
2 commentsread comments
1 2 3 4 5
accurate
x 4
add to favorites
launch autoscroll
font size
0
reset
how to read this tab
guitar tuner
Autoscroll
slow
fast
+/-
esc
set tempo
stop
Help us to improve Ultimate-Guitar.com Take our survey!
×
Author
-------------------------------------------------------------------------------
                             Another Way to Die - Alicia Keys Ft. Jack White
-------------------------------------------------------------------------------
Tabbed by: daware14
Email: bl4ckened@live.com
Album: Quantum of Solace Official Soundtrack

Tuning:EADGBe

e|-----------------------------------|
B|-----------------------------------|
G|-----------------------------------| X3
D|-----------------------------------|
A|------------5~~------------7~~-----|
E|--0--3~~0--------0--3~~0-----------|

e|---------------------------------------------------------------------|
B|---------------------------------------------------------------------|
G|---------------------------------------------------------------------|
D|---------------------------------------------------------------------|
A|----------------2------------------2---------------------------------|
E|----2-3-5-2-3-5-0-----0--3--0------0------0--3--0---0--3--0---0--5--0|

e|----------------------------------------------|
B|----------------------------------------------|
G|----------------------------------------------|X6
D|----------------------------------------------|Let Ring
A|----------------------------------------------|
E|-----7----------------3----------------0------|

e|------------------------------------------------------|
B|------------------------------------------------------|
G|------------------------------------------------------|
D|---99---55---77--77-x-77---X2---2---------------------|
A|---99---55---77--77-x-77--------2---------------------|
E|---77---33---55--55-x-55--------0----0--3--0---0--3--0|

e|----------------------------------------------|
B|----------------------------------------------|
G|----------------------------------------------|X6
D|----------------------------------------------|Let Ring
A|----------------------------------------------|
E|-----7----------------3----------------0------|

e|---------------------------------|
B|---------------------------------|
G|---------------------------------|
D|---99---55---77--77-x-77---X2--2-|
A|---99---55---77--77-x-77-------2-|
E|---77---33---55--55-x-55-------0-|

e|------------------------------------------------------------|
B|------------------------------------------------------------|
G|------------------------------------------------------------|
D|---7777--7777---------5-4-----2222--2222---------5-4----X3--|
A|---7777--7777-------5-----5---2222--2222-------5-----5------|
E|---5555--5555---5\7-----------0000--0000---5\7--------------|

e|------------------------------------------------------|
B|------------------------------------------------------|
G|------------------------------------------------------|
D|---7777--7777---------5-4-----------------------------|
A|---7777--7777-------5-----5-5\7-----------------------|
E|---5555--5555---5\7---------------0--3--0---0--3--0---|


e|--------------------------------------------------------------------------|
B|--------------------------------------------------------------------------|
G|--19^rp17p16----17-16^--17-16^---17-16^-----------------------------------|
D|--------------------------------------------------------------------------|
A|--------------------------------------------------------------------------|
E|-------------------------------------------12-15151515-12--12-15151515-12-|

e|----------------------------------------------|
B|----------------------------------------------|
G|----------------------------------------------|X4
D|----------------------------------------------|Let Ring
A|----------------------------------------------|
E|-----7----------------3----------------0------|

e|---------------------------------|
B|---------------------------------|
G|---------------------------------|
D|---99---55---77--77-x-77---X2--2-|
A|---99---55---77--77-x-77-------2-|
E|---77---33---55--55-x-55-------0-|

e|----------------------------------------|
B|----------------------------------------|
G|----------------------------------------|
D|-----------------------2----------------|
A|-----------------------2----------------|
E|0--3--0-----0--3--0----0----0--3--0-----|

e|-----------------------------------|
B|-----------------------------------|
G|-----------------------------------| X9
D|-----------------------------------|
A|------------5~~------------7~~-----|
E|--0--3~~0--------0--3~~0-----------|

e|-------------------------------------------|
B|-------------------------------------------|
G|-------------------------------------------|
D|-------------------------------------------|
A|-------------------------------------------|
E|----2-3-5-2-3-5----0--3--0----0--3--0------|


| /  slide up
| \  slide down
| h  hammer-on
| p  pull-off
| ~  vibrato
| +  harmonic
| x  Mute note
===============================================================================
Suggest correction
comments
print report bad tab
2 comments total.
-1 reply
Fenderkid777 10 wrote on December 22 2008, 02:35 pm

Great job man! It would be a little easier to use the major chords for E and A, but besides that, good job!

0 reply
boattlebot 41 wrote on February 3 2010, 12:31 pm

the intos accurate but the rest isnt relly

guest
You may want to rate the tab now too:
select rating
Please do not post tabs as comments. Select "correction" instead!